ISO-10303-21;
HEADER;
/* Generated by software containing ST-Developer
 * from STEP Tools, Inc. (www.steptools.com) 
 */

FILE_DESCRIPTION(
/* description */ (''),
/* implementation_level */ '2;1');

FILE_NAME(
/* name */ 'D:/CACHECDRESSAI.step',
/* time_stamp */ '2022-01-03T18:03:46+01:00',
/* author */ (''),
/* organization */ (''),
/* preprocessor_version */ 'ST-DEVELOPER v18.1',
/* originating_system */ 'Autodesk Translation Framework v10.10.0.1391',

/* authorisation */ '');

FILE_SCHEMA (('AUTOMOTIVE_DESIGN { 1 0 10303 214 3 1 1 }'));
ENDSEC;

DATA;
#10=MECHANICAL_DESIGN_GEOMETRIC_PRESENTATION_REPRESENTATION('',(#13),#720);
#11=SHAPE_REPRESENTATION_RELATIONSHIP('SRR','None',#727,#12);
#12=ADVANCED_BREP_SHAPE_REPRESENTATION('',(#14),#719);
#13=STYLED_ITEM('',(#736),#14);
#14=MANIFOLD_SOLID_BREP('Corps1',#444);
#15=FACE_BOUND('',#71,.T.);
#16=FACE_BOUND('',#72,.T.);
#17=FACE_BOUND('',#73,.T.);
#18=FACE_BOUND('',#74,.T.);
#19=FACE_BOUND('',#75,.T.);
#20=FACE_BOUND('',#96,.T.);
#21=FACE_BOUND('',#97,.T.);
#22=FACE_BOUND('',#98,.T.);
#23=FACE_BOUND('',#99,.T.);
#24=FACE_BOUND('',#100,.T.);
#25=PLANE('',#461);
#26=PLANE('',#462);
#27=PLANE('',#465);
#28=PLANE('',#466);
#29=PLANE('',#467);
#30=PLANE('',#468);
#31=PLANE('',#469);
#32=PLANE('',#470);
#33=PLANE('',#471);
#34=PLANE('',#472);
#35=PLANE('',#473);
#36=PLANE('',#474);
#37=PLANE('',#475);
#38=PLANE('',#476);
#39=PLANE('',#477);
#40=PLANE('',#478);
#41=PLANE('',#479);
#42=PLANE('',#480);
#43=PLANE('',#485);
#44=PLANE('',#486);
#45=FACE_OUTER_BOUND('',#68,.T.);
#46=FACE_OUTER_BOUND('',#69,.T.);
#47=FACE_OUTER_BOUND('',#70,.T.);
#48=FACE_OUTER_BOUND('',#76,.T.);
#49=FACE_OUTER_BOUND('',#77,.T.);
#50=FACE_OUTER_BOUND('',#78,.T.);
#51=FACE_OUTER_BOUND('',#79,.T.);
#52=FACE_OUTER_BOUND('',#80,.T.);
#53=FACE_OUTER_BOUND('',#81,.T.);
#54=FACE_OUTER_BOUND('',#82,.T.);
#55=FACE_OUTER_BOUND('',#83,.T.);
#56=FACE_OUTER_BOUND('',#84,.T.);
#57=FACE_OUTER_BOUND('',#85,.T.);
#58=FACE_OUTER_BOUND('',#86,.T.);
#59=FACE_OUTER_BOUND('',#87,.T.);
#60=FACE_OUTER_BOUND('',#88,.T.);
#61=FACE_OUTER_BOUND('',#89,.T.);
#62=FACE_OUTER_BOUND('',#90,.T.);
#63=FACE_OUTER_BOUND('',#91,.T.);
#64=FACE_OUTER_BOUND('',#92,.T.);
#65=FACE_OUTER_BOUND('',#93,.T.);
#66=FACE_OUTER_BOUND('',#94,.T.);
#67=FACE_OUTER_BOUND('',#95,.T.);
#68=EDGE_LOOP('',(#304,#305,#306,#307));
#69=EDGE_LOOP('',(#308));
#70=EDGE_LOOP('',(#309));
#71=EDGE_LOOP('',(#310,#311,#312,#313));
#72=EDGE_LOOP('',(#314,#315,#316,#317));
#73=EDGE_LOOP('',(#318,#319,#320,#321));
#74=EDGE_LOOP('',(#322,#323,#324,#325));
#75=EDGE_LOOP('',(#326));
#76=EDGE_LOOP('',(#327,#328,#329,#330));
#77=EDGE_LOOP('',(#331,#332,#333,#334));
#78=EDGE_LOOP('',(#335,#336,#337,#338));
#79=EDGE_LOOP('',(#339,#340,#341,#342));
#80=EDGE_LOOP('',(#343,#344,#345,#346));
#81=EDGE_LOOP('',(#347,#348,#349,#350));
#82=EDGE_LOOP('',(#351,#352,#353,#354));
#83=EDGE_LOOP('',(#355,#356,#357,#358));
#84=EDGE_LOOP('',(#359,#360,#361,#362));
#85=EDGE_LOOP('',(#363,#364,#365,#366));
#86=EDGE_LOOP('',(#367,#368,#369,#370));
#87=EDGE_LOOP('',(#371,#372,#373,#374));
#88=EDGE_LOOP('',(#375,#376,#377,#378));
#89=EDGE_LOOP('',(#379,#380,#381,#382));
#90=EDGE_LOOP('',(#383,#384,#385,#386));
#91=EDGE_LOOP('',(#387,#388,#389,#390));
#92=EDGE_LOOP('',(#391,#392,#393,#394));
#93=EDGE_LOOP('',(#395,#396,#397,#398));
#94=EDGE_LOOP('',(#399));
#95=EDGE_LOOP('',(#400));
#96=EDGE_LOOP('',(#401));
#97=EDGE_LOOP('',(#402,#403,#404,#405));
#98=EDGE_LOOP('',(#406,#407,#408,#409));
#99=EDGE_LOOP('',(#410,#411,#412,#413));
#100=EDGE_LOOP('',(#414,#415,#416,#417));
#101=LINE('',#603,#152);
#102=LINE('',#611,#153);
#103=LINE('',#613,#154);
#104=LINE('',#615,#155);
#105=LINE('',#616,#156);
#106=LINE('',#619,#157);
#107=LINE('',#621,#158);
#108=LINE('',#623,#159);
#109=LINE('',#624,#160);
#110=LINE('',#627,#161);
#111=LINE('',#629,#162);
#112=LINE('',#631,#163);
#113=LINE('',#632,#164);
#114=LINE('',#635,#165);
#115=LINE('',#637,#166);
#116=LINE('',#639,#167);
#117=LINE('',#640,#168);
#118=LINE('',#646,#169);
#119=LINE('',#647,#170);
#120=LINE('',#648,#171);
#121=LINE('',#651,#172);
#122=LINE('',#652,#173);
#123=LINE('',#655,#174);
#124=LINE('',#656,#175);
#125=LINE('',#658,#176);
#126=LINE('',#662,#177);
#127=LINE('',#663,#178);
#128=LINE('',#664,#179);
#129=LINE('',#667,#180);
#130=LINE('',#668,#181);
#131=LINE('',#671,#182);
#132=LINE('',#672,#183);
#133=LINE('',#674,#184);
#134=LINE('',#678,#185);
#135=LINE('',#679,#186);
#136=LINE('',#680,#187);
#137=LINE('',#683,#188);
#138=LINE('',#684,#189);
#139=LINE('',#687,#190);
#140=LINE('',#688,#191);
#141=LINE('',#690,#192);
#142=LINE('',#694,#193);
#143=LINE('',#695,#194);
#144=LINE('',#696,#195);
#145=LINE('',#699,#196);
#146=LINE('',#700,#197);
#147=LINE('',#703,#198);
#148=LINE('',#704,#199);
#149=LINE('',#706,#200);
#150=LINE('',#709,#201);
#151=LINE('',#714,#202);
#152=VECTOR('',#493,20.);
#153=VECTOR('',#502,10.);
#154=VECTOR('',#503,10.);
#155=VECTOR('',#504,10.);
#156=VECTOR('',#505,10.);
#157=VECTOR('',#506,10.);
#158=VECTOR('',#507,10.);
#159=VECTOR('',#508,10.);
#160=VECTOR('',#509,10.);
#161=VECTOR('',#510,10.);
#162=VECTOR('',#511,10.);
#163=VECTOR('',#512,10.);
#164=VECTOR('',#513,10.);
#165=VECTOR('',#514,10.);
#166=VECTOR('',#515,10.);
#167=VECTOR('',#516,10.);
#168=VECTOR('',#517,10.);
#169=VECTOR('',#522,10.);
#170=VECTOR('',#523,10.);
#171=VECTOR('',#524,10.);
#172=VECTOR('',#527,10.);
#173=VECTOR('',#528,10.);
#174=VECTOR('',#531,10.);
#175=VECTOR('',#532,10.);
#176=VECTOR('',#535,10.);
#177=VECTOR('',#538,10.);
#178=VECTOR('',#539,10.);
#179=VECTOR('',#540,10.);
#180=VECTOR('',#543,10.);
#181=VECTOR('',#544,10.);
#182=VECTOR('',#547,10.);
#183=VECTOR('',#548,10.);
#184=VECTOR('',#551,10.);
#185=VECTOR('',#554,10.);
#186=VECTOR('',#555,10.);
#187=VECTOR('',#556,10.);
#188=VECTOR('',#559,10.);
#189=VECTOR('',#560,10.);
#190=VECTOR('',#563,10.);
#191=VECTOR('',#564,10.);
#192=VECTOR('',#567,10.);
#193=VECTOR('',#570,10.);
#194=VECTOR('',#571,10.);
#195=VECTOR('',#572,10.);
#196=VECTOR('',#575,10.);
#197=VECTOR('',#576,10.);
#198=VECTOR('',#579,10.);
#199=VECTOR('',#580,10.);
#200=VECTOR('',#583,10.);
#201=VECTOR('',#586,54.5);
#202=VECTOR('',#593,25.);
#203=CIRCLE('',#459,20.);
#204=CIRCLE('',#460,20.);
#205=CIRCLE('',#463,54.5);
#206=CIRCLE('',#464,25.);
#207=CIRCLE('',#482,54.5);
#208=CIRCLE('',#484,25.);
#209=VERTEX_POINT('',#600);
#210=VERTEX_POINT('',#602);
#211=VERTEX_POINT('',#607);
#212=VERTEX_POINT('',#609);
#213=VERTEX_POINT('',#610);
#214=VERTEX_POINT('',#612);
#215=VERTEX_POINT('',#614);
#216=VERTEX_POINT('',#617);
#217=VERTEX_POINT('',#618);
#218=VERTEX_POINT('',#620);
#219=VERTEX_POINT('',#622);
#220=VERTEX_POINT('',#625);
#221=VERTEX_POINT('',#626);
#222=VERTEX_POINT('',#628);
#223=VERTEX_POINT('',#630);
#224=VERTEX_POINT('',#633);
#225=VERTEX_POINT('',#634);
#226=VERTEX_POINT('',#636);
#227=VERTEX_POINT('',#638);
#228=VERTEX_POINT('',#641);
#229=VERTEX_POINT('',#644);
#230=VERTEX_POINT('',#645);
#231=VERTEX_POINT('',#650);
#232=VERTEX_POINT('',#654);
#233=VERTEX_POINT('',#660);
#234=VERTEX_POINT('',#661);
#235=VERTEX_POINT('',#666);
#236=VERTEX_POINT('',#670);
#237=VERTEX_POINT('',#676);
#238=VERTEX_POINT('',#677);
#239=VERTEX_POINT('',#682);
#240=VERTEX_POINT('',#686);
#241=VERTEX_POINT('',#692);
#242=VERTEX_POINT('',#693);
#243=VERTEX_POINT('',#698);
#244=VERTEX_POINT('',#702);
#245=VERTEX_POINT('',#708);
#246=VERTEX_POINT('',#712);
#247=EDGE_CURVE('',#209,#209,#203,.T.);
#248=EDGE_CURVE('',#209,#210,#101,.T.);
#249=EDGE_CURVE('',#210,#210,#204,.T.);
#250=EDGE_CURVE('',#211,#211,#205,.T.);
#251=EDGE_CURVE('',#212,#213,#102,.T.);
#252=EDGE_CURVE('',#213,#214,#103,.T.);
#253=EDGE_CURVE('',#214,#215,#104,.T.);
#254=EDGE_CURVE('',#215,#212,#105,.T.);
#255=EDGE_CURVE('',#216,#217,#106,.T.);
#256=EDGE_CURVE('',#217,#218,#107,.T.);
#257=EDGE_CURVE('',#218,#219,#108,.T.);
#258=EDGE_CURVE('',#219,#216,#109,.T.);
#259=EDGE_CURVE('',#220,#221,#110,.T.);
#260=EDGE_CURVE('',#221,#222,#111,.T.);
#261=EDGE_CURVE('',#222,#223,#112,.T.);
#262=EDGE_CURVE('',#223,#220,#113,.T.);
#263=EDGE_CURVE('',#224,#225,#114,.T.);
#264=EDGE_CURVE('',#225,#226,#115,.T.);
#265=EDGE_CURVE('',#226,#227,#116,.T.);
#266=EDGE_CURVE('',#227,#224,#117,.T.);
#267=EDGE_CURVE('',#228,#228,#206,.T.);
#268=EDGE_CURVE('',#229,#230,#118,.T.);
#269=EDGE_CURVE('',#229,#212,#119,.T.);
#270=EDGE_CURVE('',#230,#215,#120,.T.);
#271=EDGE_CURVE('',#230,#231,#121,.T.);
#272=EDGE_CURVE('',#231,#214,#122,.T.);
#273=EDGE_CURVE('',#231,#232,#123,.T.);
#274=EDGE_CURVE('',#232,#213,#124,.T.);
#275=EDGE_CURVE('',#232,#229,#125,.T.);
#276=EDGE_CURVE('',#233,#234,#126,.T.);
#277=EDGE_CURVE('',#233,#216,#127,.T.);
#278=EDGE_CURVE('',#234,#219,#128,.T.);
#279=EDGE_CURVE('',#234,#235,#129,.T.);
#280=EDGE_CURVE('',#235,#218,#130,.T.);
#281=EDGE_CURVE('',#235,#236,#131,.T.);
#282=EDGE_CURVE('',#236,#217,#132,.T.);
#283=EDGE_CURVE('',#236,#233,#133,.T.);
#284=EDGE_CURVE('',#237,#238,#134,.T.);
#285=EDGE_CURVE('',#237,#220,#135,.T.);
#286=EDGE_CURVE('',#238,#223,#136,.T.);
#287=EDGE_CURVE('',#238,#239,#137,.T.);
#288=EDGE_CURVE('',#239,#222,#138,.T.);
#289=EDGE_CURVE('',#239,#240,#139,.T.);
#290=EDGE_CURVE('',#240,#221,#140,.T.);
#291=EDGE_CURVE('',#240,#237,#141,.T.);
#292=EDGE_CURVE('',#241,#242,#142,.T.);
#293=EDGE_CURVE('',#241,#224,#143,.T.);
#294=EDGE_CURVE('',#242,#227,#144,.T.);
#295=EDGE_CURVE('',#242,#243,#145,.T.);
#296=EDGE_CURVE('',#243,#226,#146,.T.);
#297=EDGE_CURVE('',#243,#244,#147,.T.);
#298=EDGE_CURVE('',#244,#225,#148,.T.);
#299=EDGE_CURVE('',#244,#241,#149,.T.);
#300=EDGE_CURVE('',#211,#245,#150,.T.);
#301=EDGE_CURVE('',#245,#245,#207,.T.);
#302=EDGE_CURVE('',#246,#246,#208,.T.);
#303=EDGE_CURVE('',#246,#228,#151,.T.);
#304=ORIENTED_EDGE('',*,*,#247,.F.);
#305=ORIENTED_EDGE('',*,*,#248,.T.);
#306=ORIENTED_EDGE('',*,*,#249,.T.);
#307=ORIENTED_EDGE('',*,*,#248,.F.);
#308=ORIENTED_EDGE('',*,*,#249,.F.);
#309=ORIENTED_EDGE('',*,*,#250,.T.);
#310=ORIENTED_EDGE('',*,*,#251,.T.);
#311=ORIENTED_EDGE('',*,*,#252,.T.);
#312=ORIENTED_EDGE('',*,*,#253,.T.);
#313=ORIENTED_EDGE('',*,*,#254,.T.);
#314=ORIENTED_EDGE('',*,*,#255,.T.);
#315=ORIENTED_EDGE('',*,*,#256,.T.);
#316=ORIENTED_EDGE('',*,*,#257,.T.);
#317=ORIENTED_EDGE('',*,*,#258,.T.);
#318=ORIENTED_EDGE('',*,*,#259,.T.);
#319=ORIENTED_EDGE('',*,*,#260,.T.);
#320=ORIENTED_EDGE('',*,*,#261,.T.);
#321=ORIENTED_EDGE('',*,*,#262,.T.);
#322=ORIENTED_EDGE('',*,*,#263,.T.);
#323=ORIENTED_EDGE('',*,*,#264,.T.);
#324=ORIENTED_EDGE('',*,*,#265,.T.);
#325=ORIENTED_EDGE('',*,*,#266,.T.);
#326=ORIENTED_EDGE('',*,*,#267,.F.);
#327=ORIENTED_EDGE('',*,*,#268,.F.);
#328=ORIENTED_EDGE('',*,*,#269,.T.);
#329=ORIENTED_EDGE('',*,*,#254,.F.);
#330=ORIENTED_EDGE('',*,*,#270,.F.);
#331=ORIENTED_EDGE('',*,*,#271,.F.);
#332=ORIENTED_EDGE('',*,*,#270,.T.);
#333=ORIENTED_EDGE('',*,*,#253,.F.);
#334=ORIENTED_EDGE('',*,*,#272,.F.);
#335=ORIENTED_EDGE('',*,*,#273,.F.);
#336=ORIENTED_EDGE('',*,*,#272,.T.);
#337=ORIENTED_EDGE('',*,*,#252,.F.);
#338=ORIENTED_EDGE('',*,*,#274,.F.);
#339=ORIENTED_EDGE('',*,*,#275,.F.);
#340=ORIENTED_EDGE('',*,*,#274,.T.);
#341=ORIENTED_EDGE('',*,*,#251,.F.);
#342=ORIENTED_EDGE('',*,*,#269,.F.);
#343=ORIENTED_EDGE('',*,*,#276,.F.);
#344=ORIENTED_EDGE('',*,*,#277,.T.);
#345=ORIENTED_EDGE('',*,*,#258,.F.);
#346=ORIENTED_EDGE('',*,*,#278,.F.);
#347=ORIENTED_EDGE('',*,*,#279,.F.);
#348=ORIENTED_EDGE('',*,*,#278,.T.);
#349=ORIENTED_EDGE('',*,*,#257,.F.);
#350=ORIENTED_EDGE('',*,*,#280,.F.);
#351=ORIENTED_EDGE('',*,*,#281,.F.);
#352=ORIENTED_EDGE('',*,*,#280,.T.);
#353=ORIENTED_EDGE('',*,*,#256,.F.);
#354=ORIENTED_EDGE('',*,*,#282,.F.);
#355=ORIENTED_EDGE('',*,*,#283,.F.);
#356=ORIENTED_EDGE('',*,*,#282,.T.);
#357=ORIENTED_EDGE('',*,*,#255,.F.);
#358=ORIENTED_EDGE('',*,*,#277,.F.);
#359=ORIENTED_EDGE('',*,*,#284,.F.);
#360=ORIENTED_EDGE('',*,*,#285,.T.);
#361=ORIENTED_EDGE('',*,*,#262,.F.);
#362=ORIENTED_EDGE('',*,*,#286,.F.);
#363=ORIENTED_EDGE('',*,*,#287,.F.);
#364=ORIENTED_EDGE('',*,*,#286,.T.);
#365=ORIENTED_EDGE('',*,*,#261,.F.);
#366=ORIENTED_EDGE('',*,*,#288,.F.);
#367=ORIENTED_EDGE('',*,*,#289,.F.);
#368=ORIENTED_EDGE('',*,*,#288,.T.);
#369=ORIENTED_EDGE('',*,*,#260,.F.);
#370=ORIENTED_EDGE('',*,*,#290,.F.);
#371=ORIENTED_EDGE('',*,*,#291,.F.);
#372=ORIENTED_EDGE('',*,*,#290,.T.);
#373=ORIENTED_EDGE('',*,*,#259,.F.);
#374=ORIENTED_EDGE('',*,*,#285,.F.);
#375=ORIENTED_EDGE('',*,*,#292,.F.);
#376=ORIENTED_EDGE('',*,*,#293,.T.);
#377=ORIENTED_EDGE('',*,*,#266,.F.);
#378=ORIENTED_EDGE('',*,*,#294,.F.);
#379=ORIENTED_EDGE('',*,*,#295,.F.);
#380=ORIENTED_EDGE('',*,*,#294,.T.);
#381=ORIENTED_EDGE('',*,*,#265,.F.);
#382=ORIENTED_EDGE('',*,*,#296,.F.);
#383=ORIENTED_EDGE('',*,*,#297,.F.);
#384=ORIENTED_EDGE('',*,*,#296,.T.);
#385=ORIENTED_EDGE('',*,*,#264,.F.);
#386=ORIENTED_EDGE('',*,*,#298,.F.);
#387=ORIENTED_EDGE('',*,*,#299,.F.);
#388=ORIENTED_EDGE('',*,*,#298,.T.);
#389=ORIENTED_EDGE('',*,*,#263,.F.);
#390=ORIENTED_EDGE('',*,*,#293,.F.);
#391=ORIENTED_EDGE('',*,*,#250,.F.);
#392=ORIENTED_EDGE('',*,*,#300,.T.);
#393=ORIENTED_EDGE('',*,*,#301,.T.);
#394=ORIENTED_EDGE('',*,*,#300,.F.);
#395=ORIENTED_EDGE('',*,*,#302,.F.);
#396=ORIENTED_EDGE('',*,*,#303,.T.);
#397=ORIENTED_EDGE('',*,*,#267,.T.);
#398=ORIENTED_EDGE('',*,*,#303,.F.);
#399=ORIENTED_EDGE('',*,*,#302,.T.);
#400=ORIENTED_EDGE('',*,*,#301,.F.);
#401=ORIENTED_EDGE('',*,*,#247,.T.);
#402=ORIENTED_EDGE('',*,*,#299,.T.);
#403=ORIENTED_EDGE('',*,*,#292,.T.);
#404=ORIENTED_EDGE('',*,*,#295,.T.);
#405=ORIENTED_EDGE('',*,*,#297,.T.);
#406=ORIENTED_EDGE('',*,*,#291,.T.);
#407=ORIENTED_EDGE('',*,*,#284,.T.);
#408=ORIENTED_EDGE('',*,*,#287,.T.);
#409=ORIENTED_EDGE('',*,*,#289,.T.);
#410=ORIENTED_EDGE('',*,*,#283,.T.);
#411=ORIENTED_EDGE('',*,*,#276,.T.);
#412=ORIENTED_EDGE('',*,*,#279,.T.);
#413=ORIENTED_EDGE('',*,*,#281,.T.);
#414=ORIENTED_EDGE('',*,*,#275,.T.);
#415=ORIENTED_EDGE('',*,*,#268,.T.);
#416=ORIENTED_EDGE('',*,*,#271,.T.);
#417=ORIENTED_EDGE('',*,*,#273,.T.);
#418=CYLINDRICAL_SURFACE('',#458,20.);
#419=CYLINDRICAL_SURFACE('',#481,54.5);
#420=CYLINDRICAL_SURFACE('',#483,25.);
#421=ADVANCED_FACE('',(#45),#418,.F.);
#422=ADVANCED_FACE('',(#46),#25,.T.);
#423=ADVANCED_FACE('',(#47,#15,#16,#17,#18,#19),#26,.T.);
#424=ADVANCED_FACE('',(#48),#27,.T.);
#425=ADVANCED_FACE('',(#49),#28,.T.);
#426=ADVANCED_FACE('',(#50),#29,.T.);
#427=ADVANCED_FACE('',(#51),#30,.T.);
#428=ADVANCED_FACE('',(#52),#31,.T.);
#429=ADVANCED_FACE('',(#53),#32,.T.);
#430=ADVANCED_FACE('',(#54),#33,.T.);
#431=ADVANCED_FACE('',(#55),#34,.T.);
#432=ADVANCED_FACE('',(#56),#35,.T.);
#433=ADVANCED_FACE('',(#57),#36,.T.);
#434=ADVANCED_FACE('',(#58),#37,.T.);
#435=ADVANCED_FACE('',(#59),#38,.T.);
#436=ADVANCED_FACE('',(#60),#39,.T.);
#437=ADVANCED_FACE('',(#61),#40,.T.);
#438=ADVANCED_FACE('',(#62),#41,.T.);
#439=ADVANCED_FACE('',(#63),#42,.T.);
#440=ADVANCED_FACE('',(#64),#419,.T.);
#441=ADVANCED_FACE('',(#65),#420,.T.);
#442=ADVANCED_FACE('',(#66),#43,.T.);
#443=ADVANCED_FACE('',(#67,#20,#21,#22,#23,#24),#44,.F.);
#444=CLOSED_SHELL('',(#421,#422,#423,#424,#425,#426,#427,#428,#429,#430,
#431,#432,#433,#434,#435,#436,#437,#438,#439,#440,#441,#442,#443));
#445=DERIVED_UNIT_ELEMENT(#447,1.);
#446=DERIVED_UNIT_ELEMENT(#722,-3.);
#447=(
MASS_UNIT()
NAMED_UNIT(*)
SI_UNIT(.KILO.,.GRAM.)
);
#448=DERIVED_UNIT((#445,#446));
#449=MEASURE_REPRESENTATION_ITEM('density measure',
POSITIVE_RATIO_MEASURE(7850.),#448);
#450=PROPERTY_DEFINITION_REPRESENTATION(#455,#452);
#451=PROPERTY_DEFINITION_REPRESENTATION(#456,#453);
#452=REPRESENTATION('material name',(#454),#719);
#453=REPRESENTATION('density',(#449),#719);
#454=DESCRIPTIVE_REPRESENTATION_ITEM('Acier','Acier');
#455=PROPERTY_DEFINITION('material property','material name',#729);
#456=PROPERTY_DEFINITION('material property','density of part',#729);
#457=AXIS2_PLACEMENT_3D('placement',#598,#487,#488);
#458=AXIS2_PLACEMENT_3D('',#599,#489,#490);
#459=AXIS2_PLACEMENT_3D('',#601,#491,#492);
#460=AXIS2_PLACEMENT_3D('',#604,#494,#495);
#461=AXIS2_PLACEMENT_3D('',#605,#496,#497);
#462=AXIS2_PLACEMENT_3D('',#606,#498,#499);
#463=AXIS2_PLACEMENT_3D('',#608,#500,#501);
#464=AXIS2_PLACEMENT_3D('',#642,#518,#519);
#465=AXIS2_PLACEMENT_3D('',#643,#520,#521);
#466=AXIS2_PLACEMENT_3D('',#649,#525,#526);
#467=AXIS2_PLACEMENT_3D('',#653,#529,#530);
#468=AXIS2_PLACEMENT_3D('',#657,#533,#534);
#469=AXIS2_PLACEMENT_3D('',#659,#536,#537);
#470=AXIS2_PLACEMENT_3D('',#665,#541,#542);
#471=AXIS2_PLACEMENT_3D('',#669,#545,#546);
#472=AXIS2_PLACEMENT_3D('',#673,#549,#550);
#473=AXIS2_PLACEMENT_3D('',#675,#552,#553);
#474=AXIS2_PLACEMENT_3D('',#681,#557,#558);
#475=AXIS2_PLACEMENT_3D('',#685,#561,#562);
#476=AXIS2_PLACEMENT_3D('',#689,#565,#566);
#477=AXIS2_PLACEMENT_3D('',#691,#568,#569);
#478=AXIS2_PLACEMENT_3D('',#697,#573,#574);
#479=AXIS2_PLACEMENT_3D('',#701,#577,#578);
#480=AXIS2_PLACEMENT_3D('',#705,#581,#582);
#481=AXIS2_PLACEMENT_3D('',#707,#584,#585);
#482=AXIS2_PLACEMENT_3D('',#710,#587,#588);
#483=AXIS2_PLACEMENT_3D('',#711,#589,#590);
#484=AXIS2_PLACEMENT_3D('',#713,#591,#592);
#485=AXIS2_PLACEMENT_3D('',#715,#594,#595);
#486=AXIS2_PLACEMENT_3D('',#716,#596,#597);
#487=DIRECTION('axis',(0.,0.,1.));
#488=DIRECTION('refdir',(1.,0.,0.));
#489=DIRECTION('center_axis',(0.,0.,1.));
#490=DIRECTION('ref_axis',(1.,0.,0.));
#491=DIRECTION('center_axis',(0.,0.,1.));
#492=DIRECTION('ref_axis',(1.,0.,0.));
#493=DIRECTION('',(0.,0.,1.));
#494=DIRECTION('center_axis',(0.,0.,1.));
#495=DIRECTION('ref_axis',(1.,0.,0.));
#496=DIRECTION('center_axis',(0.,0.,-1.));
#497=DIRECTION('ref_axis',(1.,0.,0.));
#498=DIRECTION('center_axis',(0.,0.,1.));
#499=DIRECTION('ref_axis',(1.,0.,0.));
#500=DIRECTION('center_axis',(0.,0.,1.));
#501=DIRECTION('ref_axis',(1.,0.,0.));
#502=DIRECTION('',(1.,0.,0.));
#503=DIRECTION('',(0.,-1.,0.));
#504=DIRECTION('',(-1.,0.,0.));
#505=DIRECTION('',(0.,1.,0.));
#506=DIRECTION('',(1.,0.,0.));
#507=DIRECTION('',(0.,-1.,0.));
#508=DIRECTION('',(-1.,0.,0.));
#509=DIRECTION('',(0.,1.,0.));
#510=DIRECTION('',(1.,0.,0.));
#511=DIRECTION('',(0.,-1.,0.));
#512=DIRECTION('',(-1.,0.,0.));
#513=DIRECTION('',(0.,1.,0.));
#514=DIRECTION('',(1.,0.,0.));
#515=DIRECTION('',(0.,-1.,0.));
#516=DIRECTION('',(-1.,0.,0.));
#517=DIRECTION('',(0.,1.,0.));
#518=DIRECTION('center_axis',(0.,0.,1.));
#519=DIRECTION('ref_axis',(1.,0.,0.));
#520=DIRECTION('center_axis',(1.,0.,0.));
#521=DIRECTION('ref_axis',(0.,1.,0.));
#522=DIRECTION('',(0.,-1.,0.));
#523=DIRECTION('',(0.,0.,1.));
#524=DIRECTION('',(0.,0.,1.));
#525=DIRECTION('center_axis',(0.,1.,0.));
#526=DIRECTION('ref_axis',(-1.,0.,0.));
#527=DIRECTION('',(1.,0.,0.));
#528=DIRECTION('',(0.,0.,1.));
#529=DIRECTION('center_axis',(-1.,0.,0.));
#530=DIRECTION('ref_axis',(0.,-1.,0.));
#531=DIRECTION('',(0.,1.,0.));
#532=DIRECTION('',(0.,0.,1.));
#533=DIRECTION('center_axis',(0.,-1.,0.));
#534=DIRECTION('ref_axis',(1.,0.,0.));
#535=DIRECTION('',(-1.,0.,0.));
#536=DIRECTION('center_axis',(1.,0.,0.));
#537=DIRECTION('ref_axis',(0.,1.,0.));
#538=DIRECTION('',(0.,-1.,0.));
#539=DIRECTION('',(0.,0.,1.));
#540=DIRECTION('',(0.,0.,1.));
#541=DIRECTION('center_axis',(0.,1.,0.));
#542=DIRECTION('ref_axis',(-1.,0.,0.));
#543=DIRECTION('',(1.,0.,0.));
#544=DIRECTION('',(0.,0.,1.));
#545=DIRECTION('center_axis',(-1.,0.,0.));
#546=DIRECTION('ref_axis',(0.,-1.,0.));
#547=DIRECTION('',(0.,1.,0.));
#548=DIRECTION('',(0.,0.,1.));
#549=DIRECTION('center_axis',(0.,-1.,0.));
#550=DIRECTION('ref_axis',(1.,0.,0.));
#551=DIRECTION('',(-1.,0.,0.));
#552=DIRECTION('center_axis',(1.,0.,0.));
#553=DIRECTION('ref_axis',(0.,1.,0.));
#554=DIRECTION('',(0.,-1.,0.));
#555=DIRECTION('',(0.,0.,1.));
#556=DIRECTION('',(0.,0.,1.));
#557=DIRECTION('center_axis',(0.,1.,0.));
#558=DIRECTION('ref_axis',(-1.,0.,0.));
#559=DIRECTION('',(1.,0.,0.));
#560=DIRECTION('',(0.,0.,1.));
#561=DIRECTION('center_axis',(-1.,0.,0.));
#562=DIRECTION('ref_axis',(0.,-1.,0.));
#563=DIRECTION('',(0.,1.,0.));
#564=DIRECTION('',(0.,0.,1.));
#565=DIRECTION('center_axis',(0.,-1.,0.));
#566=DIRECTION('ref_axis',(1.,0.,0.));
#567=DIRECTION('',(-1.,0.,0.));
#568=DIRECTION('center_axis',(1.,0.,0.));
#569=DIRECTION('ref_axis',(0.,1.,0.));
#570=DIRECTION('',(0.,-1.,0.));
#571=DIRECTION('',(0.,0.,1.));
#572=DIRECTION('',(0.,0.,1.));
#573=DIRECTION('center_axis',(0.,1.,0.));
#574=DIRECTION('ref_axis',(-1.,0.,0.));
#575=DIRECTION('',(1.,0.,0.));
#576=DIRECTION('',(0.,0.,1.));
#577=DIRECTION('center_axis',(-1.,0.,0.));
#578=DIRECTION('ref_axis',(0.,-1.,0.));
#579=DIRECTION('',(0.,1.,0.));
#580=DIRECTION('',(0.,0.,1.));
#581=DIRECTION('center_axis',(0.,-1.,0.));
#582=DIRECTION('ref_axis',(1.,0.,0.));
#583=DIRECTION('',(-1.,0.,0.));
#584=DIRECTION('center_axis',(0.,0.,1.));
#585=DIRECTION('ref_axis',(1.,0.,0.));
#586=DIRECTION('',(0.,0.,-1.));
#587=DIRECTION('center_axis',(0.,0.,1.));
#588=DIRECTION('ref_axis',(1.,0.,0.));
#589=DIRECTION('center_axis',(0.,0.,1.));
#590=DIRECTION('ref_axis',(1.,0.,0.));
#591=DIRECTION('center_axis',(0.,0.,1.));
#592=DIRECTION('ref_axis',(1.,0.,0.));
#593=DIRECTION('',(0.,0.,-1.));
#594=DIRECTION('center_axis',(0.,0.,1.));
#595=DIRECTION('ref_axis',(1.,0.,0.));
#596=DIRECTION('center_axis',(0.,0.,1.));
#597=DIRECTION('ref_axis',(1.,0.,0.));
#598=CARTESIAN_POINT('',(0.,0.,0.));
#599=CARTESIAN_POINT('Origin',(0.,0.,0.));
#600=CARTESIAN_POINT('',(-20.,2.44929359829471E-15,0.));
#601=CARTESIAN_POINT('Origin',(0.,0.,0.));
#602=CARTESIAN_POINT('',(-20.,2.44929359829471E-15,10.));
#603=CARTESIAN_POINT('',(-20.,-2.44929359829471E-15,0.));
#604=CARTESIAN_POINT('Origin',(0.,0.,10.));
#605=CARTESIAN_POINT('Origin',(0.,0.,10.));
#606=CARTESIAN_POINT('Origin',(0.,0.,5.));
#607=CARTESIAN_POINT('',(-54.5,-6.67432505535308E-15,5.));
#608=CARTESIAN_POINT('Origin',(0.,0.,5.));
#609=CARTESIAN_POINT('',(-4.,45.5,5.));
#610=CARTESIAN_POINT('',(4.,45.5,5.));
#611=CARTESIAN_POINT('',(4.,45.5,5.));
#612=CARTESIAN_POINT('',(4.,37.5,5.));
#613=CARTESIAN_POINT('',(4.,37.5,5.));
#614=CARTESIAN_POINT('',(-4.,37.5,5.));
#615=CARTESIAN_POINT('',(-4.,37.5,5.));
#616=CARTESIAN_POINT('',(-4.,45.5,5.));
#617=CARTESIAN_POINT('',(-45.5,4.,5.));
#618=CARTESIAN_POINT('',(-37.5,4.,5.));
#619=CARTESIAN_POINT('',(-37.5,4.,5.));
#620=CARTESIAN_POINT('',(-37.5,-4.,5.));
#621=CARTESIAN_POINT('',(-37.5,-4.,5.));
#622=CARTESIAN_POINT('',(-45.5,-4.,5.));
#623=CARTESIAN_POINT('',(-45.5,-4.,5.));
#624=CARTESIAN_POINT('',(-45.5,4.,5.));
#625=CARTESIAN_POINT('',(37.5,4.,5.));
#626=CARTESIAN_POINT('',(45.5,4.,5.));
#627=CARTESIAN_POINT('',(45.5,4.,5.));
#628=CARTESIAN_POINT('',(45.5,-4.,5.));
#629=CARTESIAN_POINT('',(45.5,-4.,5.));
#630=CARTESIAN_POINT('',(37.5,-4.,5.));
#631=CARTESIAN_POINT('',(37.5,-4.,5.));
#632=CARTESIAN_POINT('',(37.5,4.,5.));
#633=CARTESIAN_POINT('',(-4.,-37.5,5.));
#634=CARTESIAN_POINT('',(4.,-37.5,5.));
#635=CARTESIAN_POINT('',(4.,-37.5,5.));
#636=CARTESIAN_POINT('',(4.,-45.5,5.));
#637=CARTESIAN_POINT('',(4.,-45.5,5.));
#638=CARTESIAN_POINT('',(-4.,-45.5,5.));
#639=CARTESIAN_POINT('',(-4.,-45.5,5.));
#640=CARTESIAN_POINT('',(-4.,-37.5,5.));
#641=CARTESIAN_POINT('',(-25.,-3.06161699786838E-15,5.));
#642=CARTESIAN_POINT('Origin',(0.,0.,5.));
#643=CARTESIAN_POINT('Origin',(-4.,37.5,0.));
#644=CARTESIAN_POINT('',(-4.,45.5,0.));
#645=CARTESIAN_POINT('',(-4.,37.5,0.));
#646=CARTESIAN_POINT('',(-4.,45.5,0.));
#647=CARTESIAN_POINT('',(-4.,45.5,0.));
#648=CARTESIAN_POINT('',(-4.,37.5,0.));
#649=CARTESIAN_POINT('Origin',(4.,37.5,0.));
#650=CARTESIAN_POINT('',(4.,37.5,0.));
#651=CARTESIAN_POINT('',(-4.,37.5,0.));
#652=CARTESIAN_POINT('',(4.,37.5,0.));
#653=CARTESIAN_POINT('Origin',(4.,45.5,0.));
#654=CARTESIAN_POINT('',(4.,45.5,0.));
#655=CARTESIAN_POINT('',(4.,37.5,0.));
#656=CARTESIAN_POINT('',(4.,45.5,0.));
#657=CARTESIAN_POINT('Origin',(-4.,45.5,0.));
#658=CARTESIAN_POINT('',(4.,45.5,0.));
#659=CARTESIAN_POINT('Origin',(-45.5,-4.,0.));
#660=CARTESIAN_POINT('',(-45.5,4.,0.));
#661=CARTESIAN_POINT('',(-45.5,-4.,0.));
#662=CARTESIAN_POINT('',(-45.5,4.,0.));
#663=CARTESIAN_POINT('',(-45.5,4.,0.));
#664=CARTESIAN_POINT('',(-45.5,-4.,0.));
#665=CARTESIAN_POINT('Origin',(-37.5,-4.,0.));
#666=CARTESIAN_POINT('',(-37.5,-4.,0.));
#667=CARTESIAN_POINT('',(-45.5,-4.,0.));
#668=CARTESIAN_POINT('',(-37.5,-4.,0.));
#669=CARTESIAN_POINT('Origin',(-37.5,4.,0.));
#670=CARTESIAN_POINT('',(-37.5,4.,0.));
#671=CARTESIAN_POINT('',(-37.5,-4.,0.));
#672=CARTESIAN_POINT('',(-37.5,4.,0.));
#673=CARTESIAN_POINT('Origin',(-45.5,4.,0.));
#674=CARTESIAN_POINT('',(-37.5,4.,0.));
#675=CARTESIAN_POINT('Origin',(37.5,-4.,0.));
#676=CARTESIAN_POINT('',(37.5,4.,0.));
#677=CARTESIAN_POINT('',(37.5,-4.,0.));
#678=CARTESIAN_POINT('',(37.5,4.,0.));
#679=CARTESIAN_POINT('',(37.5,4.,0.));
#680=CARTESIAN_POINT('',(37.5,-4.,0.));
#681=CARTESIAN_POINT('Origin',(45.5,-4.,0.));
#682=CARTESIAN_POINT('',(45.5,-4.,0.));
#683=CARTESIAN_POINT('',(37.5,-4.,0.));
#684=CARTESIAN_POINT('',(45.5,-4.,0.));
#685=CARTESIAN_POINT('Origin',(45.5,4.,0.));
#686=CARTESIAN_POINT('',(45.5,4.,0.));
#687=CARTESIAN_POINT('',(45.5,-4.,0.));
#688=CARTESIAN_POINT('',(45.5,4.,0.));
#689=CARTESIAN_POINT('Origin',(37.5,4.,0.));
#690=CARTESIAN_POINT('',(45.5,4.,0.));
#691=CARTESIAN_POINT('Origin',(-4.,-45.5,0.));
#692=CARTESIAN_POINT('',(-4.,-37.5,0.));
#693=CARTESIAN_POINT('',(-4.,-45.5,0.));
#694=CARTESIAN_POINT('',(-4.,-37.5,0.));
#695=CARTESIAN_POINT('',(-4.,-37.5,0.));
#696=CARTESIAN_POINT('',(-4.,-45.5,0.));
#697=CARTESIAN_POINT('Origin',(4.,-45.5,0.));
#698=CARTESIAN_POINT('',(4.,-45.5,0.));
#699=CARTESIAN_POINT('',(-4.,-45.5,0.));
#700=CARTESIAN_POINT('',(4.,-45.5,0.));
#701=CARTESIAN_POINT('Origin',(4.,-37.5,0.));
#702=CARTESIAN_POINT('',(4.,-37.5,0.));
#703=CARTESIAN_POINT('',(4.,-45.5,0.));
#704=CARTESIAN_POINT('',(4.,-37.5,0.));
#705=CARTESIAN_POINT('Origin',(-4.,-37.5,0.));
#706=CARTESIAN_POINT('',(4.,-37.5,0.));
#707=CARTESIAN_POINT('Origin',(0.,0.,0.));
#708=CARTESIAN_POINT('',(-54.5,-6.67432505535308E-15,0.));
#709=CARTESIAN_POINT('',(-54.5,-6.67432505535308E-15,0.));
#710=CARTESIAN_POINT('Origin',(0.,0.,0.));
#711=CARTESIAN_POINT('Origin',(0.,0.,0.));
#712=CARTESIAN_POINT('',(-25.,-3.06161699786838E-15,15.));
#713=CARTESIAN_POINT('Origin',(0.,0.,15.));
#714=CARTESIAN_POINT('',(-25.,-3.06161699786838E-15,0.));
#715=CARTESIAN_POINT('Origin',(0.,0.,15.));
#716=CARTESIAN_POINT('Origin',(0.,0.,0.));
#717=UNCERTAINTY_MEASURE_WITH_UNIT(LENGTH_MEASURE(0.01),#721,
'DISTANCE_ACCURACY_VALUE',
'Maximum model space distance between geometric entities at asserted c
onnectivities');
#718=UNCERTAINTY_MEASURE_WITH_UNIT(LENGTH_MEASURE(0.01),#721,
'DISTANCE_ACCURACY_VALUE',
'Maximum model space distance between geometric entities at asserted c
onnectivities');
#719=(
GEOMETRIC_REPRESENTATION_CONTEXT(3)
GLOBAL_UNCERTAINTY_ASSIGNED_CONTEXT((#717))
GLOBAL_UNIT_ASSIGNED_CONTEXT((#721,#723,#724))
REPRESENTATION_CONTEXT('','3D')
);
#720=(
GEOMETRIC_REPRESENTATION_CONTEXT(3)
GLOBAL_UNCERTAINTY_ASSIGNED_CONTEXT((#718))
GLOBAL_UNIT_ASSIGNED_CONTEXT((#721,#723,#724))
REPRESENTATION_CONTEXT('','3D')
);
#721=(
LENGTH_UNIT()
NAMED_UNIT(*)
SI_UNIT(.MILLI.,.METRE.)
);
#722=(
LENGTH_UNIT()
NAMED_UNIT(*)
SI_UNIT($,.METRE.)
);
#723=(
NAMED_UNIT(*)
PLANE_ANGLE_UNIT()
SI_UNIT($,.RADIAN.)
);
#724=(
NAMED_UNIT(*)
SI_UNIT($,.STERADIAN.)
SOLID_ANGLE_UNIT()
);
#725=SHAPE_DEFINITION_REPRESENTATION(#726,#727);
#726=PRODUCT_DEFINITION_SHAPE('',$,#729);
#727=SHAPE_REPRESENTATION('',(#457),#719);
#728=PRODUCT_DEFINITION_CONTEXT('part definition',#733,'design');
#729=PRODUCT_DEFINITION('(Non enregistr\X\E9)','(Non enregistr\X\E9)',#730,
#728);
#730=PRODUCT_DEFINITION_FORMATION('',$,#735);
#731=PRODUCT_RELATED_PRODUCT_CATEGORY('(Non enregistr\X\E9)',
'(Non enregistr\X\E9)',(#735));
#732=APPLICATION_PROTOCOL_DEFINITION('international standard',
'automotive_design',2009,#733);
#733=APPLICATION_CONTEXT(
'Core Data for Automotive Mechanical Design Process');
#734=PRODUCT_CONTEXT('part definition',#733,'mechanical');
#735=PRODUCT('(Non enregistr\X\E9)','(Non enregistr\X\E9)',$,(#734));
#736=PRESENTATION_STYLE_ASSIGNMENT((#737));
#737=SURFACE_STYLE_USAGE(.BOTH.,#738);
#738=SURFACE_SIDE_STYLE('',(#739));
#739=SURFACE_STYLE_FILL_AREA(#740);
#740=FILL_AREA_STYLE('Acier - Satin\X\E9',(#741));
#741=FILL_AREA_STYLE_COLOUR('Acier - Satin\X\E9',#742);
#742=COLOUR_RGB('Acier - Satin\X\E9',0.627450980392157,0.627450980392157,
0.627450980392157);
ENDSEC;
END-ISO-10303-21;
