ISO-10303-21;
HEADER;
/* Generated by software containing ST-Developer
 * from STEP Tools, Inc. (www.steptools.com) 
 */

FILE_DESCRIPTION(
/* description */ (''),
/* implementation_level */ '2;1');

FILE_NAME(
/* name */ 
'C:\\Users\\Alexis\\Desktop\\DRAFT COUVERCLE THERMOSTAT G2-v2.stp',
/* time_stamp */ '2021-06-26T17:58:30+02:00',
/* author */ ('Alexis'),
/* organization */ (''),
/* preprocessor_version */ 'ST-DEVELOPER v18',
/* originating_system */ 'Autodesk Inventor 2020',
/* authorisation */ '');

FILE_SCHEMA (('AUTOMOTIVE_DESIGN { 1 0 10303 214 3 1 1 }'));
ENDSEC;

DATA;
#10=MECHANICAL_DESIGN_GEOMETRIC_PRESENTATION_REPRESENTATION('',(#13,#14),
#675);
#11=SHAPE_REPRESENTATION_RELATIONSHIP('SRR','None',#682,#12);
#12=ADVANCED_BREP_SHAPE_REPRESENTATION('',(#15,#16),#674);
#13=STYLED_ITEM('',(#691),#15);
#14=STYLED_ITEM('',(#691),#16);
#15=MANIFOLD_SOLID_BREP('Solide1',#376);
#16=MANIFOLD_SOLID_BREP('Solide1',#377);
#17=FACE_BOUND('',#117,.T.);
#18=FACE_BOUND('',#121,.T.);
#19=FACE_BOUND('',#123,.T.);
#20=FACE_BOUND('',#125,.T.);
#21=FACE_BOUND('',#126,.T.);
#22=FACE_BOUND('',#127,.T.);
#23=FACE_BOUND('',#129,.T.);
#24=FACE_BOUND('',#130,.T.);
#25=FACE_BOUND('',#131,.T.);
#26=PLANE('',#409);
#27=PLANE('',#416);
#28=PLANE('',#417);
#29=PLANE('',#418);
#30=PLANE('',#426);
#31=PLANE('',#435);
#32=PLANE('',#437);
#33=PLANE('',#439);
#34=PLANE('',#441);
#35=CONICAL_SURFACE('',#405,24.,0.236245260718438);
#36=LINE('',#579,#59);
#37=LINE('',#587,#60);
#38=LINE('',#597,#61);
#39=LINE('',#601,#62);
#40=LINE('',#609,#63);
#41=LINE('',#613,#64);
#42=LINE('',#617,#65);
#43=LINE('',#620,#66);
#44=LINE('',#632,#67);
#45=LINE('',#636,#68);
#46=LINE('',#640,#69);
#47=LINE('',#643,#70);
#48=LINE('',#651,#71);
#49=LINE('',#652,#72);
#50=LINE('',#654,#73);
#51=LINE('',#656,#74);
#52=LINE('',#658,#75);
#53=LINE('',#660,#76);
#54=LINE('',#662,#77);
#55=LINE('',#664,#78);
#56=LINE('',#667,#79);
#57=LINE('',#669,#80);
#58=LINE('',#671,#81);
#59=VECTOR('',#461,30.);
#60=VECTOR('',#470,24.);
#61=VECTOR('',#483,14.);
#62=VECTOR('',#488,16.);
#63=VECTOR('',#497,10.);
#64=VECTOR('',#500,10.);
#65=VECTOR('',#503,10.);
#66=VECTOR('',#506,10.);
#67=VECTOR('',#517,10.);
#68=VECTOR('',#520,10.);
#69=VECTOR('',#523,10.);
#70=VECTOR('',#526,10.);
#71=VECTOR('',#535,10.);
#72=VECTOR('',#536,10.);
#73=VECTOR('',#539,10.);
#74=VECTOR('',#542,10.);
#75=VECTOR('',#545,10.);
#76=VECTOR('',#548,10.);
#77=VECTOR('',#551,10.);
#78=VECTOR('',#554,10.);
#79=VECTOR('',#559,3.);
#80=VECTOR('',#562,30.);
#81=VECTOR('',#565,3.);
#82=CYLINDRICAL_SURFACE('',#403,30.);
#83=CYLINDRICAL_SURFACE('',#411,14.);
#84=CYLINDRICAL_SURFACE('',#414,16.);
#85=CYLINDRICAL_SURFACE('',#434,35.);
#86=CYLINDRICAL_SURFACE('',#436,6.);
#87=CYLINDRICAL_SURFACE('',#438,35.);
#88=CYLINDRICAL_SURFACE('',#440,6.);
#89=CYLINDRICAL_SURFACE('',#442,3.);
#90=CYLINDRICAL_SURFACE('',#443,30.);
#91=CYLINDRICAL_SURFACE('',#444,3.);
#92=FACE_OUTER_BOUND('',#113,.T.);
#93=FACE_OUTER_BOUND('',#114,.T.);
#94=FACE_OUTER_BOUND('',#115,.T.);
#95=FACE_OUTER_BOUND('',#116,.T.);
#96=FACE_OUTER_BOUND('',#118,.T.);
#97=FACE_OUTER_BOUND('',#119,.T.);
#98=FACE_OUTER_BOUND('',#120,.T.);
#99=FACE_OUTER_BOUND('',#122,.T.);
#100=FACE_OUTER_BOUND('',#124,.T.);
#101=FACE_OUTER_BOUND('',#128,.T.);
#102=FACE_OUTER_BOUND('',#132,.T.);
#103=FACE_OUTER_BOUND('',#133,.T.);
#104=FACE_OUTER_BOUND('',#134,.T.);
#105=FACE_OUTER_BOUND('',#135,.T.);
#106=FACE_OUTER_BOUND('',#136,.T.);
#107=FACE_OUTER_BOUND('',#137,.T.);
#108=FACE_OUTER_BOUND('',#138,.T.);
#109=FACE_OUTER_BOUND('',#139,.T.);
#110=FACE_OUTER_BOUND('',#140,.T.);
#111=FACE_OUTER_BOUND('',#141,.T.);
#112=FACE_OUTER_BOUND('',#142,.T.);
#113=EDGE_LOOP('',(#254,#255,#256,#257,#258,#259));
#114=EDGE_LOOP('',(#260,#261,#262,#263,#264));
#115=EDGE_LOOP('',(#265,#266,#267,#268,#269));
#116=EDGE_LOOP('',(#270));
#117=EDGE_LOOP('',(#271));
#118=EDGE_LOOP('',(#272,#273,#274,#275,#276));
#119=EDGE_LOOP('',(#277,#278,#279,#280,#281));
#120=EDGE_LOOP('',(#282));
#121=EDGE_LOOP('',(#283,#284));
#122=EDGE_LOOP('',(#285));
#123=EDGE_LOOP('',(#286,#287));
#124=EDGE_LOOP('',(#288,#289,#290,#291,#292,#293,#294,#295));
#125=EDGE_LOOP('',(#296));
#126=EDGE_LOOP('',(#297));
#127=EDGE_LOOP('',(#298));
#128=EDGE_LOOP('',(#299,#300,#301,#302,#303,#304,#305,#306));
#129=EDGE_LOOP('',(#307));
#130=EDGE_LOOP('',(#308));
#131=EDGE_LOOP('',(#309));
#132=EDGE_LOOP('',(#310,#311,#312,#313));
#133=EDGE_LOOP('',(#314,#315,#316,#317));
#134=EDGE_LOOP('',(#318,#319,#320,#321));
#135=EDGE_LOOP('',(#322,#323,#324,#325));
#136=EDGE_LOOP('',(#326,#327,#328,#329));
#137=EDGE_LOOP('',(#330,#331,#332,#333));
#138=EDGE_LOOP('',(#334,#335,#336,#337));
#139=EDGE_LOOP('',(#338,#339,#340,#341));
#140=EDGE_LOOP('',(#342,#343,#344,#345));
#141=EDGE_LOOP('',(#346,#347,#348,#349));
#142=EDGE_LOOP('',(#350,#351,#352,#353));
#143=CIRCLE('',#398,30.);
#144=CIRCLE('',#399,30.);
#145=CIRCLE('',#400,30.);
#146=CIRCLE('',#401,16.);
#147=CIRCLE('',#402,16.);
#148=CIRCLE('',#404,30.);
#149=CIRCLE('',#406,24.);
#150=CIRCLE('',#407,24.);
#151=CIRCLE('',#408,17.5);
#152=CIRCLE('',#410,14.);
#153=CIRCLE('',#412,14.);
#154=CIRCLE('',#413,14.);
#155=CIRCLE('',#415,16.);
#156=CIRCLE('',#419,35.);
#157=CIRCLE('',#420,6.);
#158=CIRCLE('',#421,35.);
#159=CIRCLE('',#422,6.);
#160=CIRCLE('',#423,3.);
#161=CIRCLE('',#424,30.);
#162=CIRCLE('',#425,3.);
#163=CIRCLE('',#427,35.);
#164=CIRCLE('',#428,6.);
#165=CIRCLE('',#429,35.);
#166=CIRCLE('',#430,6.);
#167=CIRCLE('',#431,3.);
#168=CIRCLE('',#432,30.);
#169=CIRCLE('',#433,3.);
#170=VERTEX_POINT('',#568);
#171=VERTEX_POINT('',#569);
#172=VERTEX_POINT('',#572);
#173=VERTEX_POINT('',#574);
#174=VERTEX_POINT('',#578);
#175=VERTEX_POINT('',#582);
#176=VERTEX_POINT('',#583);
#177=VERTEX_POINT('',#586);
#178=VERTEX_POINT('',#590);
#179=VERTEX_POINT('',#593);
#180=VERTEX_POINT('',#594);
#181=VERTEX_POINT('',#599);
#182=VERTEX_POINT('',#605);
#183=VERTEX_POINT('',#606);
#184=VERTEX_POINT('',#608);
#185=VERTEX_POINT('',#610);
#186=VERTEX_POINT('',#612);
#187=VERTEX_POINT('',#614);
#188=VERTEX_POINT('',#616);
#189=VERTEX_POINT('',#618);
#190=VERTEX_POINT('',#621);
#191=VERTEX_POINT('',#623);
#192=VERTEX_POINT('',#625);
#193=VERTEX_POINT('',#628);
#194=VERTEX_POINT('',#629);
#195=VERTEX_POINT('',#631);
#196=VERTEX_POINT('',#633);
#197=VERTEX_POINT('',#635);
#198=VERTEX_POINT('',#637);
#199=VERTEX_POINT('',#639);
#200=VERTEX_POINT('',#641);
#201=VERTEX_POINT('',#644);
#202=VERTEX_POINT('',#646);
#203=VERTEX_POINT('',#648);
#204=EDGE_CURVE('',#170,#171,#143,.T.);
#205=EDGE_CURVE('',#171,#170,#144,.T.);
#206=EDGE_CURVE('',#170,#172,#145,.T.);
#207=EDGE_CURVE('',#172,#173,#146,.T.);
#208=EDGE_CURVE('',#173,#172,#147,.T.);
#209=EDGE_CURVE('',#171,#174,#36,.T.);
#210=EDGE_CURVE('',#174,#174,#148,.T.);
#211=EDGE_CURVE('',#175,#176,#149,.T.);
#212=EDGE_CURVE('',#176,#175,#150,.T.);
#213=EDGE_CURVE('',#176,#177,#37,.T.);
#214=EDGE_CURVE('',#177,#177,#151,.T.);
#215=EDGE_CURVE('',#178,#178,#152,.T.);
#216=EDGE_CURVE('',#179,#180,#153,.T.);
#217=EDGE_CURVE('',#180,#179,#154,.T.);
#218=EDGE_CURVE('',#180,#178,#38,.T.);
#219=EDGE_CURVE('',#181,#181,#155,.T.);
#220=EDGE_CURVE('',#181,#173,#39,.T.);
#221=EDGE_CURVE('',#182,#183,#156,.T.);
#222=EDGE_CURVE('',#184,#182,#40,.T.);
#223=EDGE_CURVE('',#185,#184,#157,.T.);
#224=EDGE_CURVE('',#186,#185,#41,.T.);
#225=EDGE_CURVE('',#187,#186,#158,.T.);
#226=EDGE_CURVE('',#188,#187,#42,.T.);
#227=EDGE_CURVE('',#189,#188,#159,.T.);
#228=EDGE_CURVE('',#183,#189,#43,.T.);
#229=EDGE_CURVE('',#190,#190,#160,.T.);
#230=EDGE_CURVE('',#191,#191,#161,.T.);
#231=EDGE_CURVE('',#192,#192,#162,.T.);
#232=EDGE_CURVE('',#193,#194,#163,.T.);
#233=EDGE_CURVE('',#194,#195,#44,.T.);
#234=EDGE_CURVE('',#195,#196,#164,.T.);
#235=EDGE_CURVE('',#196,#197,#45,.T.);
#236=EDGE_CURVE('',#197,#198,#165,.T.);
#237=EDGE_CURVE('',#198,#199,#46,.T.);
#238=EDGE_CURVE('',#199,#200,#166,.T.);
#239=EDGE_CURVE('',#200,#193,#47,.T.);
#240=EDGE_CURVE('',#201,#201,#167,.T.);
#241=EDGE_CURVE('',#202,#202,#168,.T.);
#242=EDGE_CURVE('',#203,#203,#169,.T.);
#243=EDGE_CURVE('',#183,#194,#48,.T.);
#244=EDGE_CURVE('',#182,#193,#49,.T.);
#245=EDGE_CURVE('',#189,#195,#50,.T.);
#246=EDGE_CURVE('',#188,#196,#51,.T.);
#247=EDGE_CURVE('',#187,#197,#52,.T.);
#248=EDGE_CURVE('',#186,#198,#53,.T.);
#249=EDGE_CURVE('',#185,#199,#54,.T.);
#250=EDGE_CURVE('',#184,#200,#55,.T.);
#251=EDGE_CURVE('',#201,#190,#56,.T.);
#252=EDGE_CURVE('',#202,#191,#57,.T.);
#253=EDGE_CURVE('',#203,#192,#58,.T.);
#254=ORIENTED_EDGE('',*,*,#204,.T.);
#255=ORIENTED_EDGE('',*,*,#205,.T.);
#256=ORIENTED_EDGE('',*,*,#206,.T.);
#257=ORIENTED_EDGE('',*,*,#207,.T.);
#258=ORIENTED_EDGE('',*,*,#208,.T.);
#259=ORIENTED_EDGE('',*,*,#206,.F.);
#260=ORIENTED_EDGE('',*,*,#204,.F.);
#261=ORIENTED_EDGE('',*,*,#205,.F.);
#262=ORIENTED_EDGE('',*,*,#209,.T.);
#263=ORIENTED_EDGE('',*,*,#210,.T.);
#264=ORIENTED_EDGE('',*,*,#209,.F.);
#265=ORIENTED_EDGE('',*,*,#211,.F.);
#266=ORIENTED_EDGE('',*,*,#212,.F.);
#267=ORIENTED_EDGE('',*,*,#213,.T.);
#268=ORIENTED_EDGE('',*,*,#214,.T.);
#269=ORIENTED_EDGE('',*,*,#213,.F.);
#270=ORIENTED_EDGE('',*,*,#214,.F.);
#271=ORIENTED_EDGE('',*,*,#215,.F.);
#272=ORIENTED_EDGE('',*,*,#216,.F.);
#273=ORIENTED_EDGE('',*,*,#217,.F.);
#274=ORIENTED_EDGE('',*,*,#218,.T.);
#275=ORIENTED_EDGE('',*,*,#215,.T.);
#276=ORIENTED_EDGE('',*,*,#218,.F.);
#277=ORIENTED_EDGE('',*,*,#219,.F.);
#278=ORIENTED_EDGE('',*,*,#220,.T.);
#279=ORIENTED_EDGE('',*,*,#207,.F.);
#280=ORIENTED_EDGE('',*,*,#208,.F.);
#281=ORIENTED_EDGE('',*,*,#220,.F.);
#282=ORIENTED_EDGE('',*,*,#219,.T.);
#283=ORIENTED_EDGE('',*,*,#216,.T.);
#284=ORIENTED_EDGE('',*,*,#217,.T.);
#285=ORIENTED_EDGE('',*,*,#210,.F.);
#286=ORIENTED_EDGE('',*,*,#211,.T.);
#287=ORIENTED_EDGE('',*,*,#212,.T.);
#288=ORIENTED_EDGE('',*,*,#221,.F.);
#289=ORIENTED_EDGE('',*,*,#222,.F.);
#290=ORIENTED_EDGE('',*,*,#223,.F.);
#291=ORIENTED_EDGE('',*,*,#224,.F.);
#292=ORIENTED_EDGE('',*,*,#225,.F.);
#293=ORIENTED_EDGE('',*,*,#226,.F.);
#294=ORIENTED_EDGE('',*,*,#227,.F.);
#295=ORIENTED_EDGE('',*,*,#228,.F.);
#296=ORIENTED_EDGE('',*,*,#229,.F.);
#297=ORIENTED_EDGE('',*,*,#230,.F.);
#298=ORIENTED_EDGE('',*,*,#231,.F.);
#299=ORIENTED_EDGE('',*,*,#232,.T.);
#300=ORIENTED_EDGE('',*,*,#233,.T.);
#301=ORIENTED_EDGE('',*,*,#234,.T.);
#302=ORIENTED_EDGE('',*,*,#235,.T.);
#303=ORIENTED_EDGE('',*,*,#236,.T.);
#304=ORIENTED_EDGE('',*,*,#237,.T.);
#305=ORIENTED_EDGE('',*,*,#238,.T.);
#306=ORIENTED_EDGE('',*,*,#239,.T.);
#307=ORIENTED_EDGE('',*,*,#240,.T.);
#308=ORIENTED_EDGE('',*,*,#241,.T.);
#309=ORIENTED_EDGE('',*,*,#242,.T.);
#310=ORIENTED_EDGE('',*,*,#221,.T.);
#311=ORIENTED_EDGE('',*,*,#243,.T.);
#312=ORIENTED_EDGE('',*,*,#232,.F.);
#313=ORIENTED_EDGE('',*,*,#244,.F.);
#314=ORIENTED_EDGE('',*,*,#228,.T.);
#315=ORIENTED_EDGE('',*,*,#245,.T.);
#316=ORIENTED_EDGE('',*,*,#233,.F.);
#317=ORIENTED_EDGE('',*,*,#243,.F.);
#318=ORIENTED_EDGE('',*,*,#227,.T.);
#319=ORIENTED_EDGE('',*,*,#246,.T.);
#320=ORIENTED_EDGE('',*,*,#234,.F.);
#321=ORIENTED_EDGE('',*,*,#245,.F.);
#322=ORIENTED_EDGE('',*,*,#226,.T.);
#323=ORIENTED_EDGE('',*,*,#247,.T.);
#324=ORIENTED_EDGE('',*,*,#235,.F.);
#325=ORIENTED_EDGE('',*,*,#246,.F.);
#326=ORIENTED_EDGE('',*,*,#225,.T.);
#327=ORIENTED_EDGE('',*,*,#248,.T.);
#328=ORIENTED_EDGE('',*,*,#236,.F.);
#329=ORIENTED_EDGE('',*,*,#247,.F.);
#330=ORIENTED_EDGE('',*,*,#224,.T.);
#331=ORIENTED_EDGE('',*,*,#249,.T.);
#332=ORIENTED_EDGE('',*,*,#237,.F.);
#333=ORIENTED_EDGE('',*,*,#248,.F.);
#334=ORIENTED_EDGE('',*,*,#223,.T.);
#335=ORIENTED_EDGE('',*,*,#250,.T.);
#336=ORIENTED_EDGE('',*,*,#238,.F.);
#337=ORIENTED_EDGE('',*,*,#249,.F.);
#338=ORIENTED_EDGE('',*,*,#222,.T.);
#339=ORIENTED_EDGE('',*,*,#244,.T.);
#340=ORIENTED_EDGE('',*,*,#239,.F.);
#341=ORIENTED_EDGE('',*,*,#250,.F.);
#342=ORIENTED_EDGE('',*,*,#240,.F.);
#343=ORIENTED_EDGE('',*,*,#251,.T.);
#344=ORIENTED_EDGE('',*,*,#229,.T.);
#345=ORIENTED_EDGE('',*,*,#251,.F.);
#346=ORIENTED_EDGE('',*,*,#241,.F.);
#347=ORIENTED_EDGE('',*,*,#252,.T.);
#348=ORIENTED_EDGE('',*,*,#230,.T.);
#349=ORIENTED_EDGE('',*,*,#252,.F.);
#350=ORIENTED_EDGE('',*,*,#242,.F.);
#351=ORIENTED_EDGE('',*,*,#253,.T.);
#352=ORIENTED_EDGE('',*,*,#231,.T.);
#353=ORIENTED_EDGE('',*,*,#253,.F.);
#354=SPHERICAL_SURFACE('',#397,30.);
#355=ADVANCED_FACE('',(#92),#354,.T.);
#356=ADVANCED_FACE('',(#93),#82,.T.);
#357=ADVANCED_FACE('',(#94),#35,.F.);
#358=ADVANCED_FACE('',(#95,#17),#26,.T.);
#359=ADVANCED_FACE('',(#96),#83,.F.);
#360=ADVANCED_FACE('',(#97),#84,.T.);
#361=ADVANCED_FACE('',(#98,#18),#27,.T.);
#362=ADVANCED_FACE('',(#99,#19),#28,.F.);
#363=ADVANCED_FACE('',(#100,#20,#21,#22),#29,.F.);
#364=ADVANCED_FACE('',(#101,#23,#24,#25),#30,.T.);
#365=ADVANCED_FACE('',(#102),#85,.T.);
#366=ADVANCED_FACE('',(#103),#31,.T.);
#367=ADVANCED_FACE('',(#104),#86,.T.);
#368=ADVANCED_FACE('',(#105),#32,.T.);
#369=ADVANCED_FACE('',(#106),#87,.T.);
#370=ADVANCED_FACE('',(#107),#33,.T.);
#371=ADVANCED_FACE('',(#108),#88,.T.);
#372=ADVANCED_FACE('',(#109),#34,.T.);
#373=ADVANCED_FACE('',(#110),#89,.F.);
#374=ADVANCED_FACE('',(#111),#90,.F.);
#375=ADVANCED_FACE('',(#112),#91,.F.);
#376=CLOSED_SHELL('',(#355,#356,#357,#358,#359,#360,#361,#362));
#377=CLOSED_SHELL('',(#363,#364,#365,#366,#367,#368,#369,#370,#371,#372,
#373,#374,#375));
#378=DERIVED_UNIT_ELEMENT(#380,1.);
#379=DERIVED_UNIT_ELEMENT(#677,3.);
#380=(
MASS_UNIT()
NAMED_UNIT(*)
SI_UNIT($,.GRAM.)
);
#381=DERIVED_UNIT((#378,#379));
#382=MEASURE_REPRESENTATION_ITEM('density measure',
POSITIVE_RATIO_MEASURE(1.),#381);
#383=PROPERTY_DEFINITION_REPRESENTATION(#388,#385);
#384=PROPERTY_DEFINITION_REPRESENTATION(#389,#386);
#385=REPRESENTATION('material name',(#387),#674);
#386=REPRESENTATION('density',(#382),#674);
#387=DESCRIPTIVE_REPRESENTATION_ITEM('G\X\E9n\X\E9rique','G\X\E9n\X\E9
rique');
#388=PROPERTY_DEFINITION('material property','material name',#684);
#389=PROPERTY_DEFINITION('material property','density of part',#684);
#390=DATE_TIME_ROLE('creation_date');
#391=APPLIED_DATE_AND_TIME_ASSIGNMENT(#392,#390,(#684));
#392=DATE_AND_TIME(#393,#394);
#393=CALENDAR_DATE(2021,28,5);
#394=LOCAL_TIME(15,7,4.,#395);
#395=COORDINATED_UNIVERSAL_TIME_OFFSET(0,0,.BEHIND.);
#396=AXIS2_PLACEMENT_3D('placement',#566,#445,#446);
#397=AXIS2_PLACEMENT_3D('',#567,#447,#448);
#398=AXIS2_PLACEMENT_3D('',#570,#449,#450);
#399=AXIS2_PLACEMENT_3D('',#571,#451,#452);
#400=AXIS2_PLACEMENT_3D('',#573,#453,#454);
#401=AXIS2_PLACEMENT_3D('',#575,#455,#456);
#402=AXIS2_PLACEMENT_3D('',#576,#457,#458);
#403=AXIS2_PLACEMENT_3D('',#577,#459,#460);
#404=AXIS2_PLACEMENT_3D('',#580,#462,#463);
#405=AXIS2_PLACEMENT_3D('',#581,#464,#465);
#406=AXIS2_PLACEMENT_3D('',#584,#466,#467);
#407=AXIS2_PLACEMENT_3D('',#585,#468,#469);
#408=AXIS2_PLACEMENT_3D('',#588,#471,#472);
#409=AXIS2_PLACEMENT_3D('',#589,#473,#474);
#410=AXIS2_PLACEMENT_3D('',#591,#475,#476);
#411=AXIS2_PLACEMENT_3D('',#592,#477,#478);
#412=AXIS2_PLACEMENT_3D('',#595,#479,#480);
#413=AXIS2_PLACEMENT_3D('',#596,#481,#482);
#414=AXIS2_PLACEMENT_3D('',#598,#484,#485);
#415=AXIS2_PLACEMENT_3D('',#600,#486,#487);
#416=AXIS2_PLACEMENT_3D('',#602,#489,#490);
#417=AXIS2_PLACEMENT_3D('',#603,#491,#492);
#418=AXIS2_PLACEMENT_3D('',#604,#493,#494);
#419=AXIS2_PLACEMENT_3D('',#607,#495,#496);
#420=AXIS2_PLACEMENT_3D('',#611,#498,#499);
#421=AXIS2_PLACEMENT_3D('',#615,#501,#502);
#422=AXIS2_PLACEMENT_3D('',#619,#504,#505);
#423=AXIS2_PLACEMENT_3D('',#622,#507,#508);
#424=AXIS2_PLACEMENT_3D('',#624,#509,#510);
#425=AXIS2_PLACEMENT_3D('',#626,#511,#512);
#426=AXIS2_PLACEMENT_3D('',#627,#513,#514);
#427=AXIS2_PLACEMENT_3D('',#630,#515,#516);
#428=AXIS2_PLACEMENT_3D('',#634,#518,#519);
#429=AXIS2_PLACEMENT_3D('',#638,#521,#522);
#430=AXIS2_PLACEMENT_3D('',#642,#524,#525);
#431=AXIS2_PLACEMENT_3D('',#645,#527,#528);
#432=AXIS2_PLACEMENT_3D('',#647,#529,#530);
#433=AXIS2_PLACEMENT_3D('',#649,#531,#532);
#434=AXIS2_PLACEMENT_3D('',#650,#533,#534);
#435=AXIS2_PLACEMENT_3D('',#653,#537,#538);
#436=AXIS2_PLACEMENT_3D('',#655,#540,#541);
#437=AXIS2_PLACEMENT_3D('',#657,#543,#544);
#438=AXIS2_PLACEMENT_3D('',#659,#546,#547);
#439=AXIS2_PLACEMENT_3D('',#661,#549,#550);
#440=AXIS2_PLACEMENT_3D('',#663,#552,#553);
#441=AXIS2_PLACEMENT_3D('',#665,#555,#556);
#442=AXIS2_PLACEMENT_3D('',#666,#557,#558);
#443=AXIS2_PLACEMENT_3D('',#668,#560,#561);
#444=AXIS2_PLACEMENT_3D('',#670,#563,#564);
#445=DIRECTION('axis',(0.,0.,1.));
#446=DIRECTION('refdir',(1.,0.,0.));
#447=DIRECTION('center_axis',(-6.12323399573677E-17,-3.74939945665464E-33,
-1.));
#448=DIRECTION('ref_axis',(-1.,-6.12323399573677E-17,0.));
#449=DIRECTION('center_axis',(0.,0.,1.));
#450=DIRECTION('ref_axis',(-1.,-6.12323399573676E-17,0.));
#451=DIRECTION('center_axis',(0.,0.,1.));
#452=DIRECTION('ref_axis',(-1.,-6.12323399573676E-17,0.));
#453=DIRECTION('center_axis',(1.83697019872103E-16,-1.,0.));
#454=DIRECTION('ref_axis',(1.,1.83697019872103E-16,0.));
#455=DIRECTION('center_axis',(0.,0.,-1.));
#456=DIRECTION('ref_axis',(1.,0.,0.));
#457=DIRECTION('center_axis',(0.,0.,-1.));
#458=DIRECTION('ref_axis',(1.,0.,0.));
#459=DIRECTION('center_axis',(0.,0.,1.));
#460=DIRECTION('ref_axis',(1.,0.,0.));
#461=DIRECTION('',(0.,0.,-1.));
#462=DIRECTION('center_axis',(0.,0.,1.));
#463=DIRECTION('ref_axis',(1.,0.,0.));
#464=DIRECTION('center_axis',(0.,0.,-1.));
#465=DIRECTION('ref_axis',(1.,0.,0.));
#466=DIRECTION('center_axis',(0.,0.,1.));
#467=DIRECTION('ref_axis',(1.,0.,0.));
#468=DIRECTION('center_axis',(0.,0.,1.));
#469=DIRECTION('ref_axis',(1.,0.,0.));
#470=DIRECTION('',(0.234053838575021,2.8663328423905E-17,0.972223637157778));
#471=DIRECTION('center_axis',(0.,0.,1.));
#472=DIRECTION('ref_axis',(-1.,0.,0.));
#473=DIRECTION('center_axis',(0.,0.,-1.));
#474=DIRECTION('ref_axis',(-1.,0.,0.));
#475=DIRECTION('center_axis',(0.,0.,-1.));
#476=DIRECTION('ref_axis',(1.,0.,0.));
#477=DIRECTION('center_axis',(0.,0.,-1.));
#478=DIRECTION('ref_axis',(1.,0.,0.));
#479=DIRECTION('center_axis',(0.,0.,-1.));
#480=DIRECTION('ref_axis',(1.,0.,0.));
#481=DIRECTION('center_axis',(0.,0.,-1.));
#482=DIRECTION('ref_axis',(1.,0.,0.));
#483=DIRECTION('',(0.,0.,-1.));
#484=DIRECTION('center_axis',(0.,0.,1.));
#485=DIRECTION('ref_axis',(1.,0.,0.));
#486=DIRECTION('center_axis',(0.,0.,1.));
#487=DIRECTION('ref_axis',(1.,0.,0.));
#488=DIRECTION('',(0.,0.,-1.));
#489=DIRECTION('center_axis',(0.,0.,1.));
#490=DIRECTION('ref_axis',(1.,0.,0.));
#491=DIRECTION('center_axis',(0.,0.,1.));
#492=DIRECTION('ref_axis',(1.,0.,0.));
#493=DIRECTION('center_axis',(0.,0.,-1.));
#494=DIRECTION('ref_axis',(-1.,0.,0.));
#495=DIRECTION('center_axis',(0.,0.,-1.));
#496=DIRECTION('ref_axis',(-0.315116360332658,-0.949053043539031,0.));
#497=DIRECTION('',(-0.585185286754265,0.810899611645196,0.));
#498=DIRECTION('center_axis',(0.,0.,-1.));
#499=DIRECTION('ref_axis',(0.949053043539031,0.315116360332658,0.));
#500=DIRECTION('',(-0.585185286754266,-0.810899611645195,0.));
#501=DIRECTION('center_axis',(0.,0.,-1.));
#502=DIRECTION('ref_axis',(0.315116360332657,0.949053043539031,0.));
#503=DIRECTION('',(0.585185286754265,-0.810899611645195,0.));
#504=DIRECTION('center_axis',(0.,0.,-1.));
#505=DIRECTION('ref_axis',(-0.949053043539031,-0.315116360332658,0.));
#506=DIRECTION('',(0.585185286754265,0.810899611645196,0.));
#507=DIRECTION('center_axis',(0.,0.,1.));
#508=DIRECTION('ref_axis',(1.,0.,0.));
#509=DIRECTION('center_axis',(0.,0.,1.));
#510=DIRECTION('ref_axis',(1.,0.,0.));
#511=DIRECTION('center_axis',(0.,0.,1.));
#512=DIRECTION('ref_axis',(1.,0.,0.));
#513=DIRECTION('center_axis',(0.,0.,-1.));
#514=DIRECTION('ref_axis',(-1.,0.,0.));
#515=DIRECTION('center_axis',(0.,0.,-1.));
#516=DIRECTION('ref_axis',(-0.315116360332658,-0.949053043539031,0.));
#517=DIRECTION('',(0.585185286754265,0.810899611645196,0.));
#518=DIRECTION('center_axis',(0.,0.,-1.));
#519=DIRECTION('ref_axis',(-0.949053043539031,-0.315116360332658,0.));
#520=DIRECTION('',(0.585185286754265,-0.810899611645195,0.));
#521=DIRECTION('center_axis',(0.,0.,-1.));
#522=DIRECTION('ref_axis',(0.315116360332657,0.949053043539031,0.));
#523=DIRECTION('',(-0.585185286754266,-0.810899611645195,0.));
#524=DIRECTION('center_axis',(0.,0.,-1.));
#525=DIRECTION('ref_axis',(0.949053043539031,0.315116360332658,0.));
#526=DIRECTION('',(-0.585185286754265,0.810899611645196,0.));
#527=DIRECTION('center_axis',(0.,0.,1.));
#528=DIRECTION('ref_axis',(1.,0.,0.));
#529=DIRECTION('center_axis',(0.,0.,1.));
#530=DIRECTION('ref_axis',(1.,0.,0.));
#531=DIRECTION('center_axis',(0.,0.,1.));
#532=DIRECTION('ref_axis',(1.,0.,0.));
#533=DIRECTION('center_axis',(0.,0.,-1.));
#534=DIRECTION('ref_axis',(-0.315116360332658,-0.949053043539031,0.));
#535=DIRECTION('',(0.,0.,-1.));
#536=DIRECTION('',(0.,0.,-1.));
#537=DIRECTION('center_axis',(-0.810899611645196,0.585185286754264,0.));
#538=DIRECTION('ref_axis',(0.585185286754265,0.810899611645196,0.));
#539=DIRECTION('',(0.,0.,-1.));
#540=DIRECTION('center_axis',(0.,0.,-1.));
#541=DIRECTION('ref_axis',(4.62592926927149E-17,1.,0.));
#542=DIRECTION('',(0.,0.,-1.));
#543=DIRECTION('center_axis',(0.810899611645196,0.585185286754265,0.));
#544=DIRECTION('ref_axis',(0.585185286754265,-0.810899611645196,0.));
#545=DIRECTION('',(0.,0.,-1.));
#546=DIRECTION('center_axis',(0.,0.,-1.));
#547=DIRECTION('ref_axis',(0.315116360332657,0.949053043539031,0.));
#548=DIRECTION('',(0.,0.,-1.));
#549=DIRECTION('center_axis',(0.810899611645195,-0.585185286754266,0.));
#550=DIRECTION('ref_axis',(-0.585185286754266,-0.810899611645195,0.));
#551=DIRECTION('',(0.,0.,-1.));
#552=DIRECTION('center_axis',(0.,0.,-1.));
#553=DIRECTION('ref_axis',(-4.62592926927149E-17,-1.,0.));
#554=DIRECTION('',(0.,0.,-1.));
#555=DIRECTION('center_axis',(-0.810899611645195,-0.585185286754265,0.));
#556=DIRECTION('ref_axis',(-0.585185286754265,0.810899611645196,0.));
#557=DIRECTION('center_axis',(0.,0.,-1.));
#558=DIRECTION('ref_axis',(1.,0.,0.));
#559=DIRECTION('',(0.,0.,1.));
#560=DIRECTION('center_axis',(0.,0.,-1.));
#561=DIRECTION('ref_axis',(1.,0.,0.));
#562=DIRECTION('',(0.,0.,1.));
#563=DIRECTION('center_axis',(0.,0.,-1.));
#564=DIRECTION('ref_axis',(1.,0.,0.));
#565=DIRECTION('',(0.,0.,1.));
#566=CARTESIAN_POINT('',(0.,0.,0.));
#567=CARTESIAN_POINT('Origin',(0.,0.,2.62284491910096));
#568=CARTESIAN_POINT('',(30.,5.51091059616309E-15,2.62284491910096));
#569=CARTESIAN_POINT('',(-30.,-3.67394039744206E-15,2.62284491910096));
#570=CARTESIAN_POINT('Origin',(0.,0.,2.62284491910096));
#571=CARTESIAN_POINT('Origin',(0.,0.,2.62284491910096));
#572=CARTESIAN_POINT('',(16.,2.93915231795365E-15,28.));
#573=CARTESIAN_POINT('Origin',(0.,0.,2.62284491910096));
#574=CARTESIAN_POINT('',(-16.,-1.95943487863577E-15,28.));
#575=CARTESIAN_POINT('Origin',(0.,0.,28.));
#576=CARTESIAN_POINT('Origin',(0.,0.,28.));
#577=CARTESIAN_POINT('Origin',(0.,0.,0.));
#578=CARTESIAN_POINT('',(-30.,3.67394039744206E-15,-2.));
#579=CARTESIAN_POINT('',(-30.,-3.67394039744206E-15,0.));
#580=CARTESIAN_POINT('Origin',(0.,0.,-2.));
#581=CARTESIAN_POINT('Origin',(0.,0.,-2.));
#582=CARTESIAN_POINT('',(24.,0.,-2.));
#583=CARTESIAN_POINT('',(-24.,-2.93915231795365E-15,-2.));
#584=CARTESIAN_POINT('Origin',(0.,0.,-2.));
#585=CARTESIAN_POINT('Origin',(0.,0.,-2.));
#586=CARTESIAN_POINT('',(-17.5,0.,25.));
#587=CARTESIAN_POINT('',(-24.,-2.93915231795365E-15,-2.));
#588=CARTESIAN_POINT('Origin',(0.,0.,25.));
#589=CARTESIAN_POINT('Origin',(0.,0.,25.));
#590=CARTESIAN_POINT('',(-14.,1.71450551880629E-15,25.));
#591=CARTESIAN_POINT('Origin',(0.,0.,25.));
#592=CARTESIAN_POINT('Origin',(0.,0.,58.));
#593=CARTESIAN_POINT('',(14.,0.,58.));
#594=CARTESIAN_POINT('',(-14.,1.71450551880629E-15,58.));
#595=CARTESIAN_POINT('Origin',(0.,0.,58.));
#596=CARTESIAN_POINT('Origin',(0.,0.,58.));
#597=CARTESIAN_POINT('',(-14.,1.71450551880629E-15,58.));
#598=CARTESIAN_POINT('Origin',(0.,0.,26.));
#599=CARTESIAN_POINT('',(-16.,-1.95943487863577E-15,58.));
#600=CARTESIAN_POINT('Origin',(0.,0.,58.));
#601=CARTESIAN_POINT('',(-16.,-1.95943487863577E-15,26.));
#602=CARTESIAN_POINT('Origin',(0.,0.,58.));
#603=CARTESIAN_POINT('Origin',(0.,0.,-2.));
#604=CARTESIAN_POINT('Origin',(0.,0.,-2.));
#605=CARTESIAN_POINT('',(-11.029072611643,-33.2168565238661,-2.));
#606=CARTESIAN_POINT('',(-11.029072611643,33.2168565238661,-2.));
#607=CARTESIAN_POINT('Origin',(0.,0.,-2.));
#608=CARTESIAN_POINT('',(-5.69431826123419,-40.6093018380041,-2.));
#609=CARTESIAN_POINT('',(-5.69431826123419,-40.6093018380041,-2.));
#610=CARTESIAN_POINT('',(5.69431826123419,-40.6093018380041,-2.));
#611=CARTESIAN_POINT('Origin',(0.,-42.5,-2.));
#612=CARTESIAN_POINT('',(11.029072611643,-33.2168565238661,-2.));
#613=CARTESIAN_POINT('',(11.029072611643,-33.2168565238661,-2.));
#614=CARTESIAN_POINT('',(11.029072611643,33.2168565238661,-2.));
#615=CARTESIAN_POINT('Origin',(0.,0.,-2.));
#616=CARTESIAN_POINT('',(5.69431826123418,40.6093018380041,-2.));
#617=CARTESIAN_POINT('',(5.69431826123418,40.6093018380041,-2.));
#618=CARTESIAN_POINT('',(-5.69431826123418,40.6093018380041,-2.));
#619=CARTESIAN_POINT('Origin',(0.,42.5,-2.));
#620=CARTESIAN_POINT('',(-11.029072611643,33.2168565238661,-2.));
#621=CARTESIAN_POINT('',(-3.,-42.5,-2.));
#622=CARTESIAN_POINT('Origin',(0.,-42.5,-2.));
#623=CARTESIAN_POINT('',(-30.,3.67394039744206E-15,-2.));
#624=CARTESIAN_POINT('Origin',(0.,0.,-2.));
#625=CARTESIAN_POINT('',(-3.,42.5,-2.));
#626=CARTESIAN_POINT('Origin',(0.,42.5,-2.));
#627=CARTESIAN_POINT('Origin',(0.,0.,-6.));
#628=CARTESIAN_POINT('',(-11.029072611643,-33.2168565238661,-6.));
#629=CARTESIAN_POINT('',(-11.029072611643,33.2168565238661,-6.));
#630=CARTESIAN_POINT('Origin',(0.,0.,-6.));
#631=CARTESIAN_POINT('',(-5.69431826123418,40.6093018380041,-6.));
#632=CARTESIAN_POINT('',(-11.029072611643,33.2168565238661,-6.));
#633=CARTESIAN_POINT('',(5.69431826123418,40.6093018380041,-6.));
#634=CARTESIAN_POINT('Origin',(0.,42.5,-6.));
#635=CARTESIAN_POINT('',(11.029072611643,33.2168565238661,-6.));
#636=CARTESIAN_POINT('',(5.69431826123418,40.6093018380041,-6.));
#637=CARTESIAN_POINT('',(11.029072611643,-33.2168565238661,-6.));
#638=CARTESIAN_POINT('Origin',(0.,0.,-6.));
#639=CARTESIAN_POINT('',(5.69431826123419,-40.6093018380041,-6.));
#640=CARTESIAN_POINT('',(11.029072611643,-33.2168565238661,-6.));
#641=CARTESIAN_POINT('',(-5.69431826123419,-40.6093018380041,-6.));
#642=CARTESIAN_POINT('Origin',(0.,-42.5,-6.));
#643=CARTESIAN_POINT('',(-5.69431826123419,-40.6093018380041,-6.));
#644=CARTESIAN_POINT('',(-3.,-42.5,-6.));
#645=CARTESIAN_POINT('Origin',(0.,-42.5,-6.));
#646=CARTESIAN_POINT('',(-30.,4.44089209850063E-15,-6.));
#647=CARTESIAN_POINT('Origin',(0.,0.,-6.));
#648=CARTESIAN_POINT('',(-3.,42.5,-6.));
#649=CARTESIAN_POINT('Origin',(0.,42.5,-6.));
#650=CARTESIAN_POINT('Origin',(0.,0.,-2.));
#651=CARTESIAN_POINT('',(-11.029072611643,33.2168565238661,-2.));
#652=CARTESIAN_POINT('',(-11.029072611643,-33.2168565238661,-2.));
#653=CARTESIAN_POINT('Origin',(-11.029072611643,33.2168565238661,-2.));
#654=CARTESIAN_POINT('',(-5.69431826123418,40.6093018380041,-2.));
#655=CARTESIAN_POINT('Origin',(0.,42.5,-2.));
#656=CARTESIAN_POINT('',(5.69431826123418,40.6093018380041,-2.));
#657=CARTESIAN_POINT('Origin',(5.69431826123418,40.6093018380041,-2.));
#658=CARTESIAN_POINT('',(11.029072611643,33.2168565238661,-2.));
#659=CARTESIAN_POINT('Origin',(0.,0.,-2.));
#660=CARTESIAN_POINT('',(11.029072611643,-33.2168565238661,-2.));
#661=CARTESIAN_POINT('Origin',(11.029072611643,-33.2168565238661,-2.));
#662=CARTESIAN_POINT('',(5.69431826123419,-40.6093018380041,-2.));
#663=CARTESIAN_POINT('Origin',(0.,-42.5,-2.));
#664=CARTESIAN_POINT('',(-5.69431826123419,-40.6093018380041,-2.));
#665=CARTESIAN_POINT('Origin',(-5.69431826123419,-40.6093018380041,-2.));
#666=CARTESIAN_POINT('Origin',(0.,-42.5,-2.));
#667=CARTESIAN_POINT('',(-3.,-42.5,-2.));
#668=CARTESIAN_POINT('Origin',(0.,0.,-2.));
#669=CARTESIAN_POINT('',(-30.,3.67394039744206E-15,-2.));
#670=CARTESIAN_POINT('Origin',(0.,42.5,-2.));
#671=CARTESIAN_POINT('',(-3.,42.5,-2.));
#672=UNCERTAINTY_MEASURE_WITH_UNIT(LENGTH_MEASURE(0.01),#676,
'DISTANCE_ACCURACY_VALUE',
'Maximum model space distance between geometric entities at asserted c
onnectivities');
#673=UNCERTAINTY_MEASURE_WITH_UNIT(LENGTH_MEASURE(0.01),#676,
'DISTANCE_ACCURACY_VALUE',
'Maximum model space distance between geometric entities at asserted c
onnectivities');
#674=(
GEOMETRIC_REPRESENTATION_CONTEXT(3)
GLOBAL_UNCERTAINTY_ASSIGNED_CONTEXT((#672))
GLOBAL_UNIT_ASSIGNED_CONTEXT((#676,#678,#679))
REPRESENTATION_CONTEXT('','3D')
);
#675=(
GEOMETRIC_REPRESENTATION_CONTEXT(3)
GLOBAL_UNCERTAINTY_ASSIGNED_CONTEXT((#673))
GLOBAL_UNIT_ASSIGNED_CONTEXT((#676,#678,#679))
REPRESENTATION_CONTEXT('','3D')
);
#676=(
LENGTH_UNIT()
NAMED_UNIT(*)
SI_UNIT(.MILLI.,.METRE.)
);
#677=(
LENGTH_UNIT()
NAMED_UNIT(*)
SI_UNIT(.CENTI.,.METRE.)
);
#678=(
NAMED_UNIT(*)
PLANE_ANGLE_UNIT()
SI_UNIT($,.RADIAN.)
);
#679=(
NAMED_UNIT(*)
SI_UNIT($,.STERADIAN.)
SOLID_ANGLE_UNIT()
);
#680=SHAPE_DEFINITION_REPRESENTATION(#681,#682);
#681=PRODUCT_DEFINITION_SHAPE('',$,#684);
#682=SHAPE_REPRESENTATION('',(#396),#674);
#683=PRODUCT_DEFINITION_CONTEXT('part definition',#688,'design');
#684=PRODUCT_DEFINITION('DRAFT COUVERCLE THERMOSTAT G2-v2',
'DRAFT COUVERCLE THERMOSTAT G2-v2',#685,#683);
#685=PRODUCT_DEFINITION_FORMATION('',$,#690);
#686=PRODUCT_RELATED_PRODUCT_CATEGORY(
'DRAFT COUVERCLE THERMOSTAT G2-v2','DRAFT COUVERCLE THERMOSTAT G2-v2',(#690));
#687=APPLICATION_PROTOCOL_DEFINITION('international standard',
'automotive_design',2009,#688);
#688=APPLICATION_CONTEXT(
'Core Data for Automotive Mechanical Design Process');
#689=PRODUCT_CONTEXT('part definition',#688,'mechanical');
#690=PRODUCT('DRAFT COUVERCLE THERMOSTAT G2-v2',
'DRAFT COUVERCLE THERMOSTAT G2-v2',$,(#689));
#691=PRESENTATION_STYLE_ASSIGNMENT((#692));
#692=SURFACE_STYLE_USAGE(.BOTH.,#695);
#693=SURFACE_STYLE_RENDERING_WITH_PROPERTIES($,#699,(#694));
#694=SURFACE_STYLE_TRANSPARENT(0.);
#695=SURFACE_SIDE_STYLE('',(#696,#693));
#696=SURFACE_STYLE_FILL_AREA(#697);
#697=FILL_AREA_STYLE('',(#698));
#698=FILL_AREA_STYLE_COLOUR('',#699);
#699=COLOUR_RGB('',0.749019607843137,0.749019607843137,0.749019607843137);
ENDSEC;
END-ISO-10303-21;
