ISO-10303-21;
HEADER;
/* Generated by software containing ST-Developer
 * from STEP Tools, Inc. (www.steptools.com) 
 */

FILE_DESCRIPTION(
/* description */ (''),
/* implementation_level */ '2;1');

FILE_NAME(
/* name */ 
'D:\\perso\\CNC\\AXE Y\\pi\X\E8ce en aluminium\\Support c\X\F4t\X\E9 D
roite.stp',
/* time_stamp */ '2022-01-19T13:00:22+01:00',
/* author */ ('boby'),
/* organization */ (''),
/* preprocessor_version */ 'ST-DEVELOPER v16.5',
/* originating_system */ 'Autodesk Inventor 2017',
/* authorisation */ '');

FILE_SCHEMA (('AUTOMOTIVE_DESIGN { 1 0 10303 214 3 1 1 }'));
ENDSEC;

DATA;
#10=MECHANICAL_DESIGN_GEOMETRIC_PRESENTATION_REPRESENTATION('',(#13),#562);
#11=SHAPE_REPRESENTATION_RELATIONSHIP('SRR','None',#571,#12);
#12=ADVANCED_BREP_SHAPE_REPRESENTATION('',(#14),#561);
#13=STYLED_ITEM('',(#580),#14);
#14=MANIFOLD_SOLID_BREP('Solide1',#332);
#15=LINE('',#518,#34);
#16=LINE('',#520,#35);
#17=LINE('',#522,#36);
#18=LINE('',#523,#37);
#19=LINE('',#528,#38);
#20=LINE('',#532,#39);
#21=LINE('',#534,#40);
#22=LINE('',#535,#41);
#23=LINE('',#538,#42);
#24=LINE('',#540,#43);
#25=LINE('',#541,#44);
#26=LINE('',#544,#45);
#27=LINE('',#546,#46);
#28=LINE('',#547,#47);
#29=LINE('',#550,#48);
#30=LINE('',#552,#49);
#31=LINE('',#553,#50);
#32=LINE('',#555,#51);
#33=LINE('',#556,#52);
#34=VECTOR('',#433,10.);
#35=VECTOR('',#434,10.);
#36=VECTOR('',#435,10.);
#37=VECTOR('',#436,10.);
#38=VECTOR('',#441,10.);
#39=VECTOR('',#446,10.);
#40=VECTOR('',#447,10.);
#41=VECTOR('',#448,10.);
#42=VECTOR('',#451,10.);
#43=VECTOR('',#452,10.);
#44=VECTOR('',#453,10.);
#45=VECTOR('',#456,10.);
#46=VECTOR('',#457,10.);
#47=VECTOR('',#458,10.);
#48=VECTOR('',#461,10.);
#49=VECTOR('',#462,10.);
#50=VECTOR('',#463,10.);
#51=VECTOR('',#466,10.);
#52=VECTOR('',#467,10.);
#53=PLANE('',#343);
#54=PLANE('',#347);
#55=PLANE('',#366);
#56=PLANE('',#370);
#57=PLANE('',#371);
#58=PLANE('',#372);
#59=PLANE('',#373);
#60=PLANE('',#374);
#61=PLANE('',#375);
#62=PLANE('',#376);
#63=FACE_BOUND('',#105,.T.);
#64=FACE_BOUND('',#108,.T.);
#65=FACE_BOUND('',#111,.T.);
#66=FACE_BOUND('',#113,.T.);
#67=FACE_BOUND('',#115,.T.);
#68=FACE_BOUND('',#117,.T.);
#69=FACE_BOUND('',#119,.T.);
#70=FACE_BOUND('',#121,.T.);
#71=FACE_BOUND('',#126,.T.);
#72=FACE_BOUND('',#127,.T.);
#73=FACE_BOUND('',#132,.T.);
#74=FACE_BOUND('',#133,.T.);
#75=FACE_BOUND('',#134,.T.);
#76=FACE_BOUND('',#135,.T.);
#77=FACE_BOUND('',#136,.T.);
#78=FACE_BOUND('',#137,.T.);
#79=FACE_BOUND('',#139,.T.);
#80=FACE_BOUND('',#140,.T.);
#81=FACE_BOUND('',#141,.T.);
#82=FACE_BOUND('',#142,.T.);
#83=FACE_BOUND('',#143,.T.);
#84=FACE_BOUND('',#144,.T.);
#85=FACE_OUTER_BOUND('',#104,.T.);
#86=FACE_OUTER_BOUND('',#106,.T.);
#87=FACE_OUTER_BOUND('',#107,.T.);
#88=FACE_OUTER_BOUND('',#109,.T.);
#89=FACE_OUTER_BOUND('',#110,.T.);
#90=FACE_OUTER_BOUND('',#112,.T.);
#91=FACE_OUTER_BOUND('',#114,.T.);
#92=FACE_OUTER_BOUND('',#116,.T.);
#93=FACE_OUTER_BOUND('',#118,.T.);
#94=FACE_OUTER_BOUND('',#120,.T.);
#95=FACE_OUTER_BOUND('',#122,.T.);
#96=FACE_OUTER_BOUND('',#123,.T.);
#97=FACE_OUTER_BOUND('',#124,.T.);
#98=FACE_OUTER_BOUND('',#125,.T.);
#99=FACE_OUTER_BOUND('',#128,.T.);
#100=FACE_OUTER_BOUND('',#129,.T.);
#101=FACE_OUTER_BOUND('',#130,.T.);
#102=FACE_OUTER_BOUND('',#131,.T.);
#103=FACE_OUTER_BOUND('',#138,.T.);
#104=EDGE_LOOP('',(#230));
#105=EDGE_LOOP('',(#231));
#106=EDGE_LOOP('',(#232));
#107=EDGE_LOOP('',(#233));
#108=EDGE_LOOP('',(#234));
#109=EDGE_LOOP('',(#235));
#110=EDGE_LOOP('',(#236));
#111=EDGE_LOOP('',(#237));
#112=EDGE_LOOP('',(#238));
#113=EDGE_LOOP('',(#239));
#114=EDGE_LOOP('',(#240));
#115=EDGE_LOOP('',(#241));
#116=EDGE_LOOP('',(#242));
#117=EDGE_LOOP('',(#243));
#118=EDGE_LOOP('',(#244));
#119=EDGE_LOOP('',(#245));
#120=EDGE_LOOP('',(#246));
#121=EDGE_LOOP('',(#247));
#122=EDGE_LOOP('',(#248,#249,#250,#251));
#123=EDGE_LOOP('',(#252,#253,#254,#255));
#124=EDGE_LOOP('',(#256,#257,#258,#259));
#125=EDGE_LOOP('',(#260,#261,#262,#263));
#126=EDGE_LOOP('',(#264));
#127=EDGE_LOOP('',(#265));
#128=EDGE_LOOP('',(#266,#267,#268,#269));
#129=EDGE_LOOP('',(#270,#271,#272,#273));
#130=EDGE_LOOP('',(#274,#275,#276,#277));
#131=EDGE_LOOP('',(#278,#279,#280,#281,#282,#283,#284));
#132=EDGE_LOOP('',(#285));
#133=EDGE_LOOP('',(#286));
#134=EDGE_LOOP('',(#287));
#135=EDGE_LOOP('',(#288));
#136=EDGE_LOOP('',(#289));
#137=EDGE_LOOP('',(#290));
#138=EDGE_LOOP('',(#291,#292,#293,#294,#295,#296,#297));
#139=EDGE_LOOP('',(#298));
#140=EDGE_LOOP('',(#299));
#141=EDGE_LOOP('',(#300));
#142=EDGE_LOOP('',(#301));
#143=EDGE_LOOP('',(#302));
#144=EDGE_LOOP('',(#303));
#145=CIRCLE('',#341,4.);
#146=CIRCLE('',#342,4.);
#147=CIRCLE('',#345,4.);
#148=CIRCLE('',#346,4.);
#149=CIRCLE('',#349,11.);
#150=CIRCLE('',#350,11.);
#151=CIRCLE('',#352,4.);
#152=CIRCLE('',#353,4.);
#153=CIRCLE('',#355,4.);
#154=CIRCLE('',#356,4.);
#155=CIRCLE('',#358,4.);
#156=CIRCLE('',#359,4.);
#157=CIRCLE('',#361,4.);
#158=CIRCLE('',#362,4.);
#159=CIRCLE('',#364,4.);
#160=CIRCLE('',#365,4.);
#161=CIRCLE('',#368,20.);
#162=CIRCLE('',#369,20.);
#163=VERTEX_POINT('',#474);
#164=VERTEX_POINT('',#476);
#165=VERTEX_POINT('',#480);
#166=VERTEX_POINT('',#482);
#167=VERTEX_POINT('',#486);
#168=VERTEX_POINT('',#488);
#169=VERTEX_POINT('',#491);
#170=VERTEX_POINT('',#493);
#171=VERTEX_POINT('',#496);
#172=VERTEX_POINT('',#498);
#173=VERTEX_POINT('',#501);
#174=VERTEX_POINT('',#503);
#175=VERTEX_POINT('',#506);
#176=VERTEX_POINT('',#508);
#177=VERTEX_POINT('',#511);
#178=VERTEX_POINT('',#513);
#179=VERTEX_POINT('',#516);
#180=VERTEX_POINT('',#517);
#181=VERTEX_POINT('',#519);
#182=VERTEX_POINT('',#521);
#183=VERTEX_POINT('',#525);
#184=VERTEX_POINT('',#527);
#185=VERTEX_POINT('',#531);
#186=VERTEX_POINT('',#533);
#187=VERTEX_POINT('',#537);
#188=VERTEX_POINT('',#539);
#189=VERTEX_POINT('',#543);
#190=VERTEX_POINT('',#545);
#191=VERTEX_POINT('',#549);
#192=VERTEX_POINT('',#551);
#193=EDGE_CURVE('',#163,#163,#145,.T.);
#194=EDGE_CURVE('',#164,#164,#146,.T.);
#195=EDGE_CURVE('',#165,#165,#147,.T.);
#196=EDGE_CURVE('',#166,#166,#148,.T.);
#197=EDGE_CURVE('',#167,#167,#149,.T.);
#198=EDGE_CURVE('',#168,#168,#150,.T.);
#199=EDGE_CURVE('',#169,#169,#151,.T.);
#200=EDGE_CURVE('',#170,#170,#152,.T.);
#201=EDGE_CURVE('',#171,#171,#153,.T.);
#202=EDGE_CURVE('',#172,#172,#154,.T.);
#203=EDGE_CURVE('',#173,#173,#155,.T.);
#204=EDGE_CURVE('',#174,#174,#156,.T.);
#205=EDGE_CURVE('',#175,#175,#157,.T.);
#206=EDGE_CURVE('',#176,#176,#158,.T.);
#207=EDGE_CURVE('',#177,#177,#159,.T.);
#208=EDGE_CURVE('',#178,#178,#160,.T.);
#209=EDGE_CURVE('',#179,#180,#15,.T.);
#210=EDGE_CURVE('',#179,#181,#16,.T.);
#211=EDGE_CURVE('',#182,#181,#17,.T.);
#212=EDGE_CURVE('',#180,#182,#18,.T.);
#213=EDGE_CURVE('',#183,#179,#161,.T.);
#214=EDGE_CURVE('',#183,#184,#19,.T.);
#215=EDGE_CURVE('',#181,#184,#162,.T.);
#216=EDGE_CURVE('',#185,#183,#20,.T.);
#217=EDGE_CURVE('',#186,#185,#21,.T.);
#218=EDGE_CURVE('',#184,#186,#22,.T.);
#219=EDGE_CURVE('',#182,#187,#23,.T.);
#220=EDGE_CURVE('',#187,#188,#24,.T.);
#221=EDGE_CURVE('',#180,#188,#25,.T.);
#222=EDGE_CURVE('',#189,#185,#26,.T.);
#223=EDGE_CURVE('',#190,#189,#27,.T.);
#224=EDGE_CURVE('',#190,#186,#28,.T.);
#225=EDGE_CURVE('',#191,#190,#29,.T.);
#226=EDGE_CURVE('',#192,#189,#30,.T.);
#227=EDGE_CURVE('',#191,#192,#31,.T.);
#228=EDGE_CURVE('',#187,#191,#32,.T.);
#229=EDGE_CURVE('',#188,#192,#33,.T.);
#230=ORIENTED_EDGE('',*,*,#193,.F.);
#231=ORIENTED_EDGE('',*,*,#194,.F.);
#232=ORIENTED_EDGE('',*,*,#194,.T.);
#233=ORIENTED_EDGE('',*,*,#195,.F.);
#234=ORIENTED_EDGE('',*,*,#196,.F.);
#235=ORIENTED_EDGE('',*,*,#196,.T.);
#236=ORIENTED_EDGE('',*,*,#197,.F.);
#237=ORIENTED_EDGE('',*,*,#198,.F.);
#238=ORIENTED_EDGE('',*,*,#199,.F.);
#239=ORIENTED_EDGE('',*,*,#200,.F.);
#240=ORIENTED_EDGE('',*,*,#201,.F.);
#241=ORIENTED_EDGE('',*,*,#202,.F.);
#242=ORIENTED_EDGE('',*,*,#203,.F.);
#243=ORIENTED_EDGE('',*,*,#204,.F.);
#244=ORIENTED_EDGE('',*,*,#205,.F.);
#245=ORIENTED_EDGE('',*,*,#206,.F.);
#246=ORIENTED_EDGE('',*,*,#207,.F.);
#247=ORIENTED_EDGE('',*,*,#208,.F.);
#248=ORIENTED_EDGE('',*,*,#209,.F.);
#249=ORIENTED_EDGE('',*,*,#210,.T.);
#250=ORIENTED_EDGE('',*,*,#211,.F.);
#251=ORIENTED_EDGE('',*,*,#212,.F.);
#252=ORIENTED_EDGE('',*,*,#213,.F.);
#253=ORIENTED_EDGE('',*,*,#214,.T.);
#254=ORIENTED_EDGE('',*,*,#215,.F.);
#255=ORIENTED_EDGE('',*,*,#210,.F.);
#256=ORIENTED_EDGE('',*,*,#216,.F.);
#257=ORIENTED_EDGE('',*,*,#217,.F.);
#258=ORIENTED_EDGE('',*,*,#218,.F.);
#259=ORIENTED_EDGE('',*,*,#214,.F.);
#260=ORIENTED_EDGE('',*,*,#212,.T.);
#261=ORIENTED_EDGE('',*,*,#219,.T.);
#262=ORIENTED_EDGE('',*,*,#220,.T.);
#263=ORIENTED_EDGE('',*,*,#221,.F.);
#264=ORIENTED_EDGE('',*,*,#193,.T.);
#265=ORIENTED_EDGE('',*,*,#195,.T.);
#266=ORIENTED_EDGE('',*,*,#217,.T.);
#267=ORIENTED_EDGE('',*,*,#222,.F.);
#268=ORIENTED_EDGE('',*,*,#223,.F.);
#269=ORIENTED_EDGE('',*,*,#224,.T.);
#270=ORIENTED_EDGE('',*,*,#225,.T.);
#271=ORIENTED_EDGE('',*,*,#223,.T.);
#272=ORIENTED_EDGE('',*,*,#226,.F.);
#273=ORIENTED_EDGE('',*,*,#227,.F.);
#274=ORIENTED_EDGE('',*,*,#228,.T.);
#275=ORIENTED_EDGE('',*,*,#227,.T.);
#276=ORIENTED_EDGE('',*,*,#229,.F.);
#277=ORIENTED_EDGE('',*,*,#220,.F.);
#278=ORIENTED_EDGE('',*,*,#209,.T.);
#279=ORIENTED_EDGE('',*,*,#221,.T.);
#280=ORIENTED_EDGE('',*,*,#229,.T.);
#281=ORIENTED_EDGE('',*,*,#226,.T.);
#282=ORIENTED_EDGE('',*,*,#222,.T.);
#283=ORIENTED_EDGE('',*,*,#216,.T.);
#284=ORIENTED_EDGE('',*,*,#213,.T.);
#285=ORIENTED_EDGE('',*,*,#198,.T.);
#286=ORIENTED_EDGE('',*,*,#200,.T.);
#287=ORIENTED_EDGE('',*,*,#202,.T.);
#288=ORIENTED_EDGE('',*,*,#204,.T.);
#289=ORIENTED_EDGE('',*,*,#206,.T.);
#290=ORIENTED_EDGE('',*,*,#208,.T.);
#291=ORIENTED_EDGE('',*,*,#218,.T.);
#292=ORIENTED_EDGE('',*,*,#224,.F.);
#293=ORIENTED_EDGE('',*,*,#225,.F.);
#294=ORIENTED_EDGE('',*,*,#228,.F.);
#295=ORIENTED_EDGE('',*,*,#219,.F.);
#296=ORIENTED_EDGE('',*,*,#211,.T.);
#297=ORIENTED_EDGE('',*,*,#215,.T.);
#298=ORIENTED_EDGE('',*,*,#197,.T.);
#299=ORIENTED_EDGE('',*,*,#199,.T.);
#300=ORIENTED_EDGE('',*,*,#201,.T.);
#301=ORIENTED_EDGE('',*,*,#203,.T.);
#302=ORIENTED_EDGE('',*,*,#205,.T.);
#303=ORIENTED_EDGE('',*,*,#207,.T.);
#304=CYLINDRICAL_SURFACE('',#340,4.);
#305=CYLINDRICAL_SURFACE('',#344,4.);
#306=CYLINDRICAL_SURFACE('',#348,11.);
#307=CYLINDRICAL_SURFACE('',#351,4.);
#308=CYLINDRICAL_SURFACE('',#354,4.);
#309=CYLINDRICAL_SURFACE('',#357,4.);
#310=CYLINDRICAL_SURFACE('',#360,4.);
#311=CYLINDRICAL_SURFACE('',#363,4.);
#312=CYLINDRICAL_SURFACE('',#367,20.);
#313=ADVANCED_FACE('',(#85,#63),#304,.F.);
#314=ADVANCED_FACE('',(#86),#53,.T.);
#315=ADVANCED_FACE('',(#87,#64),#305,.F.);
#316=ADVANCED_FACE('',(#88),#54,.T.);
#317=ADVANCED_FACE('',(#89,#65),#306,.F.);
#318=ADVANCED_FACE('',(#90,#66),#307,.F.);
#319=ADVANCED_FACE('',(#91,#67),#308,.F.);
#320=ADVANCED_FACE('',(#92,#68),#309,.F.);
#321=ADVANCED_FACE('',(#93,#69),#310,.F.);
#322=ADVANCED_FACE('',(#94,#70),#311,.F.);
#323=ADVANCED_FACE('',(#95),#55,.F.);
#324=ADVANCED_FACE('',(#96),#312,.F.);
#325=ADVANCED_FACE('',(#97),#56,.F.);
#326=ADVANCED_FACE('',(#98,#71,#72),#57,.T.);
#327=ADVANCED_FACE('',(#99),#58,.T.);
#328=ADVANCED_FACE('',(#100),#59,.T.);
#329=ADVANCED_FACE('',(#101),#60,.T.);
#330=ADVANCED_FACE('',(#102,#73,#74,#75,#76,#77,#78),#61,.T.);
#331=ADVANCED_FACE('',(#103,#79,#80,#81,#82,#83,#84),#62,.F.);
#332=CLOSED_SHELL('',(#313,#314,#315,#316,#317,#318,#319,#320,#321,#322,
#323,#324,#325,#326,#327,#328,#329,#330,#331));
#333=DATE_TIME_ROLE('creation_date');
#334=APPLIED_DATE_AND_TIME_ASSIGNMENT(#335,#333,(#573));
#335=DATE_AND_TIME(#336,#337);
#336=CALENDAR_DATE(2022,16,1);
#337=LOCAL_TIME(15,1,35.,#338);
#338=COORDINATED_UNIVERSAL_TIME_OFFSET(0,0,.BEHIND.);
#339=AXIS2_PLACEMENT_3D('placement',#472,#377,#378);
#340=AXIS2_PLACEMENT_3D('',#473,#379,#380);
#341=AXIS2_PLACEMENT_3D('',#475,#381,#382);
#342=AXIS2_PLACEMENT_3D('',#477,#383,#384);
#343=AXIS2_PLACEMENT_3D('',#478,#385,#386);
#344=AXIS2_PLACEMENT_3D('',#479,#387,#388);
#345=AXIS2_PLACEMENT_3D('',#481,#389,#390);
#346=AXIS2_PLACEMENT_3D('',#483,#391,#392);
#347=AXIS2_PLACEMENT_3D('',#484,#393,#394);
#348=AXIS2_PLACEMENT_3D('',#485,#395,#396);
#349=AXIS2_PLACEMENT_3D('',#487,#397,#398);
#350=AXIS2_PLACEMENT_3D('',#489,#399,#400);
#351=AXIS2_PLACEMENT_3D('',#490,#401,#402);
#352=AXIS2_PLACEMENT_3D('',#492,#403,#404);
#353=AXIS2_PLACEMENT_3D('',#494,#405,#406);
#354=AXIS2_PLACEMENT_3D('',#495,#407,#408);
#355=AXIS2_PLACEMENT_3D('',#497,#409,#410);
#356=AXIS2_PLACEMENT_3D('',#499,#411,#412);
#357=AXIS2_PLACEMENT_3D('',#500,#413,#414);
#358=AXIS2_PLACEMENT_3D('',#502,#415,#416);
#359=AXIS2_PLACEMENT_3D('',#504,#417,#418);
#360=AXIS2_PLACEMENT_3D('',#505,#419,#420);
#361=AXIS2_PLACEMENT_3D('',#507,#421,#422);
#362=AXIS2_PLACEMENT_3D('',#509,#423,#424);
#363=AXIS2_PLACEMENT_3D('',#510,#425,#426);
#364=AXIS2_PLACEMENT_3D('',#512,#427,#428);
#365=AXIS2_PLACEMENT_3D('',#514,#429,#430);
#366=AXIS2_PLACEMENT_3D('',#515,#431,#432);
#367=AXIS2_PLACEMENT_3D('',#524,#437,#438);
#368=AXIS2_PLACEMENT_3D('',#526,#439,#440);
#369=AXIS2_PLACEMENT_3D('',#529,#442,#443);
#370=AXIS2_PLACEMENT_3D('',#530,#444,#445);
#371=AXIS2_PLACEMENT_3D('',#536,#449,#450);
#372=AXIS2_PLACEMENT_3D('',#542,#454,#455);
#373=AXIS2_PLACEMENT_3D('',#548,#459,#460);
#374=AXIS2_PLACEMENT_3D('',#554,#464,#465);
#375=AXIS2_PLACEMENT_3D('',#557,#468,#469);
#376=AXIS2_PLACEMENT_3D('',#558,#470,#471);
#377=DIRECTION('axis',(0.,0.,1.));
#378=DIRECTION('refdir',(1.,0.,0.));
#379=DIRECTION('center_axis',(0.,-1.,0.));
#380=DIRECTION('ref_axis',(1.,0.,0.));
#381=DIRECTION('center_axis',(0.,1.,0.));
#382=DIRECTION('ref_axis',(1.,0.,0.));
#383=DIRECTION('center_axis',(0.,-1.,0.));
#384=DIRECTION('ref_axis',(1.,0.,0.));
#385=DIRECTION('center_axis',(0.,-1.,0.));
#386=DIRECTION('ref_axis',(1.,0.,0.));
#387=DIRECTION('center_axis',(0.,-1.,0.));
#388=DIRECTION('ref_axis',(1.,0.,0.));
#389=DIRECTION('center_axis',(0.,1.,0.));
#390=DIRECTION('ref_axis',(1.,0.,0.));
#391=DIRECTION('center_axis',(0.,-1.,0.));
#392=DIRECTION('ref_axis',(1.,0.,0.));
#393=DIRECTION('center_axis',(0.,-1.,0.));
#394=DIRECTION('ref_axis',(1.,0.,0.));
#395=DIRECTION('center_axis',(0.,0.,1.));
#396=DIRECTION('ref_axis',(1.,0.,0.));
#397=DIRECTION('center_axis',(0.,0.,1.));
#398=DIRECTION('ref_axis',(1.,0.,0.));
#399=DIRECTION('center_axis',(0.,0.,-1.));
#400=DIRECTION('ref_axis',(1.,0.,0.));
#401=DIRECTION('center_axis',(0.,0.,1.));
#402=DIRECTION('ref_axis',(1.,0.,0.));
#403=DIRECTION('center_axis',(0.,0.,1.));
#404=DIRECTION('ref_axis',(1.,0.,0.));
#405=DIRECTION('center_axis',(0.,0.,-1.));
#406=DIRECTION('ref_axis',(1.,0.,0.));
#407=DIRECTION('center_axis',(0.,0.,1.));
#408=DIRECTION('ref_axis',(1.,0.,0.));
#409=DIRECTION('center_axis',(0.,0.,1.));
#410=DIRECTION('ref_axis',(1.,0.,0.));
#411=DIRECTION('center_axis',(0.,0.,-1.));
#412=DIRECTION('ref_axis',(1.,0.,0.));
#413=DIRECTION('center_axis',(0.,0.,1.));
#414=DIRECTION('ref_axis',(1.,0.,0.));
#415=DIRECTION('center_axis',(0.,0.,1.));
#416=DIRECTION('ref_axis',(1.,0.,0.));
#417=DIRECTION('center_axis',(0.,0.,-1.));
#418=DIRECTION('ref_axis',(1.,0.,0.));
#419=DIRECTION('center_axis',(0.,0.,1.));
#420=DIRECTION('ref_axis',(1.,0.,0.));
#421=DIRECTION('center_axis',(0.,0.,1.));
#422=DIRECTION('ref_axis',(1.,0.,0.));
#423=DIRECTION('center_axis',(0.,0.,-1.));
#424=DIRECTION('ref_axis',(1.,0.,0.));
#425=DIRECTION('center_axis',(0.,0.,1.));
#426=DIRECTION('ref_axis',(1.,0.,0.));
#427=DIRECTION('center_axis',(0.,0.,1.));
#428=DIRECTION('ref_axis',(1.,0.,0.));
#429=DIRECTION('center_axis',(0.,0.,-1.));
#430=DIRECTION('ref_axis',(1.,0.,0.));
#431=DIRECTION('center_axis',(1.,0.,0.));
#432=DIRECTION('ref_axis',(0.,-1.,0.));
#433=DIRECTION('',(0.,-1.,0.));
#434=DIRECTION('',(0.,0.,-1.));
#435=DIRECTION('',(0.,1.,0.));
#436=DIRECTION('',(0.,0.,-1.));
#437=DIRECTION('center_axis',(0.,0.,-1.));
#438=DIRECTION('ref_axis',(1.,0.,0.));
#439=DIRECTION('center_axis',(0.,0.,-1.));
#440=DIRECTION('ref_axis',(1.,0.,0.));
#441=DIRECTION('',(0.,0.,-1.));
#442=DIRECTION('center_axis',(0.,0.,1.));
#443=DIRECTION('ref_axis',(1.,0.,0.));
#444=DIRECTION('center_axis',(-2.96059473233375E-16,1.,0.));
#445=DIRECTION('ref_axis',(1.,0.,0.));
#446=DIRECTION('',(1.,2.96059473233375E-16,0.));
#447=DIRECTION('',(0.,0.,1.));
#448=DIRECTION('',(-1.,-2.96059473233375E-16,0.));
#449=DIRECTION('center_axis',(0.,-1.,0.));
#450=DIRECTION('ref_axis',(1.,0.,0.));
#451=DIRECTION('',(1.,0.,0.));
#452=DIRECTION('',(0.,0.,1.));
#453=DIRECTION('',(1.,0.,0.));
#454=DIRECTION('center_axis',(-1.,0.,0.));
#455=DIRECTION('ref_axis',(0.,-1.,0.));
#456=DIRECTION('',(0.,-1.,0.));
#457=DIRECTION('',(0.,0.,1.));
#458=DIRECTION('',(0.,-1.,0.));
#459=DIRECTION('center_axis',(0.,1.,0.));
#460=DIRECTION('ref_axis',(-1.,0.,0.));
#461=DIRECTION('',(-1.,0.,0.));
#462=DIRECTION('',(-1.,0.,0.));
#463=DIRECTION('',(0.,0.,1.));
#464=DIRECTION('center_axis',(1.,0.,0.));
#465=DIRECTION('ref_axis',(0.,1.,0.));
#466=DIRECTION('',(0.,1.,0.));
#467=DIRECTION('',(0.,1.,0.));
#468=DIRECTION('center_axis',(0.,0.,1.));
#469=DIRECTION('ref_axis',(1.,0.,0.));
#470=DIRECTION('center_axis',(0.,0.,1.));
#471=DIRECTION('ref_axis',(1.,0.,0.));
#472=CARTESIAN_POINT('',(0.,0.,0.));
#473=CARTESIAN_POINT('Origin',(60.,10.,7.5));
#474=CARTESIAN_POINT('',(64.,0.,7.5));
#475=CARTESIAN_POINT('Origin',(60.,0.,7.5));
#476=CARTESIAN_POINT('',(64.,20.,7.5));
#477=CARTESIAN_POINT('Origin',(60.,20.,7.5));
#478=CARTESIAN_POINT('Origin',(60.,20.,7.5));
#479=CARTESIAN_POINT('Origin',(140.,10.,7.5));
#480=CARTESIAN_POINT('',(144.,0.,7.5));
#481=CARTESIAN_POINT('Origin',(140.,0.,7.5));
#482=CARTESIAN_POINT('',(144.,20.,7.5));
#483=CARTESIAN_POINT('Origin',(140.,20.,7.5));
#484=CARTESIAN_POINT('Origin',(140.,20.,7.5));
#485=CARTESIAN_POINT('Origin',(55.,120.,-231.475150877325));
#486=CARTESIAN_POINT('',(44.,120.,0.));
#487=CARTESIAN_POINT('Origin',(55.,120.,0.));
#488=CARTESIAN_POINT('',(66.,120.,15.));
#489=CARTESIAN_POINT('Origin',(55.,120.,15.));
#490=CARTESIAN_POINT('Origin',(15.,90.,-231.475150877325));
#491=CARTESIAN_POINT('',(11.,90.,0.));
#492=CARTESIAN_POINT('Origin',(15.,90.,0.));
#493=CARTESIAN_POINT('',(19.,90.,15.));
#494=CARTESIAN_POINT('Origin',(15.,90.,15.));
#495=CARTESIAN_POINT('Origin',(15.,150.,-231.475150877325));
#496=CARTESIAN_POINT('',(11.,150.,0.));
#497=CARTESIAN_POINT('Origin',(15.,150.,0.));
#498=CARTESIAN_POINT('',(19.,150.,15.));
#499=CARTESIAN_POINT('Origin',(15.,150.,15.));
#500=CARTESIAN_POINT('Origin',(15.,180.,-231.475150877325));
#501=CARTESIAN_POINT('',(11.,180.,0.));
#502=CARTESIAN_POINT('Origin',(15.,180.,0.));
#503=CARTESIAN_POINT('',(19.,180.,15.));
#504=CARTESIAN_POINT('Origin',(15.,180.,15.));
#505=CARTESIAN_POINT('Origin',(15.,120.,-231.475150877325));
#506=CARTESIAN_POINT('',(11.,120.,0.));
#507=CARTESIAN_POINT('Origin',(15.,120.,0.));
#508=CARTESIAN_POINT('',(19.,120.,15.));
#509=CARTESIAN_POINT('Origin',(15.,120.,15.));
#510=CARTESIAN_POINT('Origin',(15.,60.,-231.475150877325));
#511=CARTESIAN_POINT('',(11.,60.,0.));
#512=CARTESIAN_POINT('Origin',(15.,60.,0.));
#513=CARTESIAN_POINT('',(19.,60.,15.));
#514=CARTESIAN_POINT('Origin',(15.,60.,15.));
#515=CARTESIAN_POINT('Origin',(50.,25.,15.));
#516=CARTESIAN_POINT('',(50.,25.,15.));
#517=CARTESIAN_POINT('',(50.,0.,15.));
#518=CARTESIAN_POINT('',(50.,61.25,15.));
#519=CARTESIAN_POINT('',(50.,25.,0.));
#520=CARTESIAN_POINT('',(50.,25.,15.));
#521=CARTESIAN_POINT('',(50.,0.,0.));
#522=CARTESIAN_POINT('',(50.,61.25,0.));
#523=CARTESIAN_POINT('',(50.,0.,7.5));
#524=CARTESIAN_POINT('Origin',(30.,25.,15.));
#525=CARTESIAN_POINT('',(30.,45.,15.));
#526=CARTESIAN_POINT('Origin',(30.,25.,15.));
#527=CARTESIAN_POINT('',(30.,45.,0.));
#528=CARTESIAN_POINT('',(30.,45.,15.));
#529=CARTESIAN_POINT('Origin',(30.,25.,0.));
#530=CARTESIAN_POINT('Origin',(0.,45.,15.));
#531=CARTESIAN_POINT('',(0.,45.,15.));
#532=CARTESIAN_POINT('',(37.5,45.,15.));
#533=CARTESIAN_POINT('',(0.,45.,0.));
#534=CARTESIAN_POINT('',(0.,45.,7.5));
#535=CARTESIAN_POINT('',(37.5,45.,0.));
#536=CARTESIAN_POINT('Origin',(0.,0.,0.));
#537=CARTESIAN_POINT('',(150.,0.,0.));
#538=CARTESIAN_POINT('',(0.,0.,0.));
#539=CARTESIAN_POINT('',(150.,0.,15.));
#540=CARTESIAN_POINT('',(150.,0.,0.));
#541=CARTESIAN_POINT('',(0.,0.,15.));
#542=CARTESIAN_POINT('Origin',(0.,195.,0.));
#543=CARTESIAN_POINT('',(0.,195.,15.));
#544=CARTESIAN_POINT('',(0.,195.,15.));
#545=CARTESIAN_POINT('',(0.,195.,0.));
#546=CARTESIAN_POINT('',(0.,195.,0.));
#547=CARTESIAN_POINT('',(0.,195.,0.));
#548=CARTESIAN_POINT('Origin',(150.,195.,0.));
#549=CARTESIAN_POINT('',(150.,195.,0.));
#550=CARTESIAN_POINT('',(150.,195.,0.));
#551=CARTESIAN_POINT('',(150.,195.,15.));
#552=CARTESIAN_POINT('',(150.,195.,15.));
#553=CARTESIAN_POINT('',(150.,195.,0.));
#554=CARTESIAN_POINT('Origin',(150.,0.,0.));
#555=CARTESIAN_POINT('',(150.,0.,0.));
#556=CARTESIAN_POINT('',(150.,0.,15.));
#557=CARTESIAN_POINT('Origin',(75.,97.5,15.));
#558=CARTESIAN_POINT('Origin',(75.,97.5,0.));
#559=UNCERTAINTY_MEASURE_WITH_UNIT(LENGTH_MEASURE(0.01),#563,
'DISTANCE_ACCURACY_VALUE',
'Maximum model space distance between geometric entities at asserted c
onnectivities');
#560=UNCERTAINTY_MEASURE_WITH_UNIT(LENGTH_MEASURE(1.E-6),#563,
'DISTANCE_ACCURACY_VALUE',
'Maximum model space distance between geometric entities at asserted c
onnectivities');
#561=(
GEOMETRIC_REPRESENTATION_CONTEXT(3)
GLOBAL_UNCERTAINTY_ASSIGNED_CONTEXT((#559))
GLOBAL_UNIT_ASSIGNED_CONTEXT((#563,#566,#564))
REPRESENTATION_CONTEXT('','3D')
);
#562=(
GEOMETRIC_REPRESENTATION_CONTEXT(3)
GLOBAL_UNCERTAINTY_ASSIGNED_CONTEXT((#560))
GLOBAL_UNIT_ASSIGNED_CONTEXT((#563,#566,#564))
REPRESENTATION_CONTEXT('','3D')
);
#563=(
LENGTH_UNIT()
NAMED_UNIT(*)
SI_UNIT(.MILLI.,.METRE.)
);
#564=(
NAMED_UNIT(*)
SI_UNIT($,.STERADIAN.)
SOLID_ANGLE_UNIT()
);
#565=DIMENSIONAL_EXPONENTS(0.,0.,0.,0.,0.,0.,0.);
#566=(
CONVERSION_BASED_UNIT('degree',#568)
NAMED_UNIT(#565)
PLANE_ANGLE_UNIT()
);
#567=(
NAMED_UNIT(*)
PLANE_ANGLE_UNIT()
SI_UNIT($,.RADIAN.)
);
#568=PLANE_ANGLE_MEASURE_WITH_UNIT(PLANE_ANGLE_MEASURE(0.01745329252),#567);
#569=SHAPE_DEFINITION_REPRESENTATION(#570,#571);
#570=PRODUCT_DEFINITION_SHAPE('',$,#573);
#571=SHAPE_REPRESENTATION('',(#339),#561);
#572=PRODUCT_DEFINITION_CONTEXT('part definition',#577,'design');
#573=PRODUCT_DEFINITION('Support c\X\F4t\X\E9 Droite',
'Support c\X\F4t\X\E9 Droite',#574,#572);
#574=PRODUCT_DEFINITION_FORMATION('',$,#579);
#575=PRODUCT_RELATED_PRODUCT_CATEGORY('Support c\X\F4t\X\E9 Droite',
'Support c\X\F4t\X\E9 Droite',(#579));
#576=APPLICATION_PROTOCOL_DEFINITION('international standard',
'automotive_design',2009,#577);
#577=APPLICATION_CONTEXT(
'Core Data for Automotive Mechanical Design Process');
#578=PRODUCT_CONTEXT('part definition',#577,'mechanical');
#579=PRODUCT('Support c\X\F4t\X\E9 Droite','Support c\X\F4t\X\E9 Droit
e',$,(#578));
#580=PRESENTATION_STYLE_ASSIGNMENT((#581));
#581=SURFACE_STYLE_USAGE(.BOTH.,#582);
#582=SURFACE_SIDE_STYLE('',(#583));
#583=SURFACE_STYLE_FILL_AREA(#584);
#584=FILL_AREA_STYLE('',(#585));
#585=FILL_AREA_STYLE_COLOUR('',#586);
#586=COLOUR_RGB('',0.749019607843137,0.749019607843137,0.749019607843137);
ENDSEC;
END-ISO-10303-21;
