ISO-10303-21;
HEADER;
/* Generated by software containing ST-Developer
 * from STEP Tools, Inc. (www.steptools.com) 
 */

FILE_DESCRIPTION(
/* description */ (''),
/* implementation_level */ '2;1');

FILE_NAME(
/* name */ 'C:/Users/Hadrien/Downloads/cage secondaire v6.step',
/* time_stamp */ '2022-01-27T10:37:54+01:00',
/* author */ (''),
/* organization */ (''),
/* preprocessor_version */ 'ST-DEVELOPER v18.1',
/* originating_system */ 'Autodesk Translation Framework v10.13.0.1454',

/* authorisation */ '');

FILE_SCHEMA (('AUTOMOTIVE_DESIGN { 1 0 10303 214 3 1 1 }'));
ENDSEC;

DATA;
#10=MECHANICAL_DESIGN_GEOMETRIC_PRESENTATION_REPRESENTATION('',(#13),#387);
#11=SHAPE_REPRESENTATION_RELATIONSHIP('SRR','None',#394,#12);
#12=ADVANCED_BREP_SHAPE_REPRESENTATION('',(#14),#386);
#13=STYLED_ITEM('',(#403),#14);
#14=MANIFOLD_SOLID_BREP('Corps1',#235);
#15=FACE_BOUND('',#51,.T.);
#16=FACE_BOUND('',#53,.T.);
#17=PLANE('',#252);
#18=PLANE('',#253);
#19=PLANE('',#254);
#20=PLANE('',#255);
#21=PLANE('',#256);
#22=PLANE('',#257);
#23=PLANE('',#258);
#24=PLANE('',#259);
#25=PLANE('',#260);
#26=PLANE('',#261);
#27=PLANE('',#262);
#28=FACE_OUTER_BOUND('',#40,.T.);
#29=FACE_OUTER_BOUND('',#41,.T.);
#30=FACE_OUTER_BOUND('',#42,.T.);
#31=FACE_OUTER_BOUND('',#43,.T.);
#32=FACE_OUTER_BOUND('',#44,.T.);
#33=FACE_OUTER_BOUND('',#45,.T.);
#34=FACE_OUTER_BOUND('',#46,.T.);
#35=FACE_OUTER_BOUND('',#47,.T.);
#36=FACE_OUTER_BOUND('',#48,.T.);
#37=FACE_OUTER_BOUND('',#49,.T.);
#38=FACE_OUTER_BOUND('',#50,.T.);
#39=FACE_OUTER_BOUND('',#52,.T.);
#40=EDGE_LOOP('',(#162,#163,#164,#165));
#41=EDGE_LOOP('',(#166,#167,#168,#169));
#42=EDGE_LOOP('',(#170,#171,#172,#173));
#43=EDGE_LOOP('',(#174,#175,#176,#177));
#44=EDGE_LOOP('',(#178,#179,#180,#181));
#45=EDGE_LOOP('',(#182,#183,#184,#185));
#46=EDGE_LOOP('',(#186,#187,#188,#189));
#47=EDGE_LOOP('',(#190,#191,#192,#193));
#48=EDGE_LOOP('',(#194,#195,#196,#197));
#49=EDGE_LOOP('',(#198,#199,#200,#201));
#50=EDGE_LOOP('',(#202,#203,#204,#205,#206,#207,#208,#209,#210));
#51=EDGE_LOOP('',(#211));
#52=EDGE_LOOP('',(#212,#213,#214,#215,#216,#217,#218,#219,#220));
#53=EDGE_LOOP('',(#221));
#54=LINE('',#326,#82);
#55=LINE('',#331,#83);
#56=LINE('',#333,#84);
#57=LINE('',#335,#85);
#58=LINE('',#336,#86);
#59=LINE('',#339,#87);
#60=LINE('',#341,#88);
#61=LINE('',#342,#89);
#62=LINE('',#345,#90);
#63=LINE('',#347,#91);
#64=LINE('',#348,#92);
#65=LINE('',#351,#93);
#66=LINE('',#353,#94);
#67=LINE('',#354,#95);
#68=LINE('',#357,#96);
#69=LINE('',#359,#97);
#70=LINE('',#360,#98);
#71=LINE('',#363,#99);
#72=LINE('',#365,#100);
#73=LINE('',#366,#101);
#74=LINE('',#369,#102);
#75=LINE('',#371,#103);
#76=LINE('',#372,#104);
#77=LINE('',#375,#105);
#78=LINE('',#377,#106);
#79=LINE('',#378,#107);
#80=LINE('',#380,#108);
#81=LINE('',#381,#109);
#82=VECTOR('',#269,135.);
#83=VECTOR('',#274,10.);
#84=VECTOR('',#275,10.);
#85=VECTOR('',#276,10.);
#86=VECTOR('',#277,10.);
#87=VECTOR('',#280,10.);
#88=VECTOR('',#281,10.);
#89=VECTOR('',#282,10.);
#90=VECTOR('',#285,10.);
#91=VECTOR('',#286,10.);
#92=VECTOR('',#287,10.);
#93=VECTOR('',#290,10.);
#94=VECTOR('',#291,10.);
#95=VECTOR('',#292,10.);
#96=VECTOR('',#295,10.);
#97=VECTOR('',#296,10.);
#98=VECTOR('',#297,10.);
#99=VECTOR('',#300,10.);
#100=VECTOR('',#301,10.);
#101=VECTOR('',#302,10.);
#102=VECTOR('',#305,10.);
#103=VECTOR('',#306,10.);
#104=VECTOR('',#307,10.);
#105=VECTOR('',#310,10.);
#106=VECTOR('',#311,10.);
#107=VECTOR('',#312,10.);
#108=VECTOR('',#315,10.);
#109=VECTOR('',#316,10.);
#110=CIRCLE('',#250,140.);
#111=CIRCLE('',#251,140.);
#112=VERTEX_POINT('',#323);
#113=VERTEX_POINT('',#325);
#114=VERTEX_POINT('',#329);
#115=VERTEX_POINT('',#330);
#116=VERTEX_POINT('',#332);
#117=VERTEX_POINT('',#334);
#118=VERTEX_POINT('',#338);
#119=VERTEX_POINT('',#340);
#120=VERTEX_POINT('',#344);
#121=VERTEX_POINT('',#346);
#122=VERTEX_POINT('',#350);
#123=VERTEX_POINT('',#352);
#124=VERTEX_POINT('',#356);
#125=VERTEX_POINT('',#358);
#126=VERTEX_POINT('',#362);
#127=VERTEX_POINT('',#364);
#128=VERTEX_POINT('',#368);
#129=VERTEX_POINT('',#370);
#130=VERTEX_POINT('',#374);
#131=VERTEX_POINT('',#376);
#132=EDGE_CURVE('',#112,#112,#110,.T.);
#133=EDGE_CURVE('',#112,#113,#54,.T.);
#134=EDGE_CURVE('',#113,#113,#111,.F.);
#135=EDGE_CURVE('',#114,#115,#55,.T.);
#136=EDGE_CURVE('',#114,#116,#56,.T.);
#137=EDGE_CURVE('',#117,#116,#57,.F.);
#138=EDGE_CURVE('',#115,#117,#58,.F.);
#139=EDGE_CURVE('',#115,#118,#59,.T.);
#140=EDGE_CURVE('',#119,#117,#60,.F.);
#141=EDGE_CURVE('',#118,#119,#61,.F.);
#142=EDGE_CURVE('',#118,#120,#62,.T.);
#143=EDGE_CURVE('',#121,#119,#63,.F.);
#144=EDGE_CURVE('',#120,#121,#64,.F.);
#145=EDGE_CURVE('',#120,#122,#65,.T.);
#146=EDGE_CURVE('',#123,#121,#66,.F.);
#147=EDGE_CURVE('',#122,#123,#67,.T.);
#148=EDGE_CURVE('',#122,#124,#68,.T.);
#149=EDGE_CURVE('',#125,#123,#69,.F.);
#150=EDGE_CURVE('',#124,#125,#70,.T.);
#151=EDGE_CURVE('',#124,#126,#71,.T.);
#152=EDGE_CURVE('',#127,#125,#72,.F.);
#153=EDGE_CURVE('',#126,#127,#73,.T.);
#154=EDGE_CURVE('',#126,#128,#74,.T.);
#155=EDGE_CURVE('',#129,#127,#75,.F.);
#156=EDGE_CURVE('',#128,#129,#76,.T.);
#157=EDGE_CURVE('',#128,#130,#77,.T.);
#158=EDGE_CURVE('',#131,#129,#78,.F.);
#159=EDGE_CURVE('',#130,#131,#79,.T.);
#160=EDGE_CURVE('',#114,#130,#80,.F.);
#161=EDGE_CURVE('',#116,#131,#81,.F.);
#162=ORIENTED_EDGE('',*,*,#132,.F.);
#163=ORIENTED_EDGE('',*,*,#133,.T.);
#164=ORIENTED_EDGE('',*,*,#134,.F.);
#165=ORIENTED_EDGE('',*,*,#133,.F.);
#166=ORIENTED_EDGE('',*,*,#135,.F.);
#167=ORIENTED_EDGE('',*,*,#136,.T.);
#168=ORIENTED_EDGE('',*,*,#137,.F.);
#169=ORIENTED_EDGE('',*,*,#138,.F.);
#170=ORIENTED_EDGE('',*,*,#139,.F.);
#171=ORIENTED_EDGE('',*,*,#138,.T.);
#172=ORIENTED_EDGE('',*,*,#140,.F.);
#173=ORIENTED_EDGE('',*,*,#141,.F.);
#174=ORIENTED_EDGE('',*,*,#142,.F.);
#175=ORIENTED_EDGE('',*,*,#141,.T.);
#176=ORIENTED_EDGE('',*,*,#143,.F.);
#177=ORIENTED_EDGE('',*,*,#144,.F.);
#178=ORIENTED_EDGE('',*,*,#145,.F.);
#179=ORIENTED_EDGE('',*,*,#144,.T.);
#180=ORIENTED_EDGE('',*,*,#146,.F.);
#181=ORIENTED_EDGE('',*,*,#147,.F.);
#182=ORIENTED_EDGE('',*,*,#148,.F.);
#183=ORIENTED_EDGE('',*,*,#147,.T.);
#184=ORIENTED_EDGE('',*,*,#149,.F.);
#185=ORIENTED_EDGE('',*,*,#150,.F.);
#186=ORIENTED_EDGE('',*,*,#151,.F.);
#187=ORIENTED_EDGE('',*,*,#150,.T.);
#188=ORIENTED_EDGE('',*,*,#152,.F.);
#189=ORIENTED_EDGE('',*,*,#153,.F.);
#190=ORIENTED_EDGE('',*,*,#154,.F.);
#191=ORIENTED_EDGE('',*,*,#153,.T.);
#192=ORIENTED_EDGE('',*,*,#155,.F.);
#193=ORIENTED_EDGE('',*,*,#156,.F.);
#194=ORIENTED_EDGE('',*,*,#157,.F.);
#195=ORIENTED_EDGE('',*,*,#156,.T.);
#196=ORIENTED_EDGE('',*,*,#158,.F.);
#197=ORIENTED_EDGE('',*,*,#159,.F.);
#198=ORIENTED_EDGE('',*,*,#160,.T.);
#199=ORIENTED_EDGE('',*,*,#159,.T.);
#200=ORIENTED_EDGE('',*,*,#161,.F.);
#201=ORIENTED_EDGE('',*,*,#136,.F.);
#202=ORIENTED_EDGE('',*,*,#161,.T.);
#203=ORIENTED_EDGE('',*,*,#158,.T.);
#204=ORIENTED_EDGE('',*,*,#155,.T.);
#205=ORIENTED_EDGE('',*,*,#152,.T.);
#206=ORIENTED_EDGE('',*,*,#149,.T.);
#207=ORIENTED_EDGE('',*,*,#146,.T.);
#208=ORIENTED_EDGE('',*,*,#143,.T.);
#209=ORIENTED_EDGE('',*,*,#140,.T.);
#210=ORIENTED_EDGE('',*,*,#137,.T.);
#211=ORIENTED_EDGE('',*,*,#132,.T.);
#212=ORIENTED_EDGE('',*,*,#160,.F.);
#213=ORIENTED_EDGE('',*,*,#135,.T.);
#214=ORIENTED_EDGE('',*,*,#139,.T.);
#215=ORIENTED_EDGE('',*,*,#142,.T.);
#216=ORIENTED_EDGE('',*,*,#145,.T.);
#217=ORIENTED_EDGE('',*,*,#148,.T.);
#218=ORIENTED_EDGE('',*,*,#151,.T.);
#219=ORIENTED_EDGE('',*,*,#154,.T.);
#220=ORIENTED_EDGE('',*,*,#157,.T.);
#221=ORIENTED_EDGE('',*,*,#134,.T.);
#222=CYLINDRICAL_SURFACE('',#249,140.);
#223=ADVANCED_FACE('',(#28),#222,.F.);
#224=ADVANCED_FACE('',(#29),#17,.T.);
#225=ADVANCED_FACE('',(#30),#18,.T.);
#226=ADVANCED_FACE('',(#31),#19,.T.);
#227=ADVANCED_FACE('',(#32),#20,.T.);
#228=ADVANCED_FACE('',(#33),#21,.T.);
#229=ADVANCED_FACE('',(#34),#22,.T.);
#230=ADVANCED_FACE('',(#35),#23,.T.);
#231=ADVANCED_FACE('',(#36),#24,.T.);
#232=ADVANCED_FACE('',(#37),#25,.T.);
#233=ADVANCED_FACE('',(#38,#15),#26,.T.);
#234=ADVANCED_FACE('',(#39,#16),#27,.F.);
#235=CLOSED_SHELL('',(#223,#224,#225,#226,#227,#228,#229,#230,#231,#232,
#233,#234));
#236=DERIVED_UNIT_ELEMENT(#238,1.);
#237=DERIVED_UNIT_ELEMENT(#389,-3.);
#238=(
MASS_UNIT()
NAMED_UNIT(*)
SI_UNIT(.KILO.,.GRAM.)
);
#239=DERIVED_UNIT((#236,#237));
#240=MEASURE_REPRESENTATION_ITEM('density measure',
POSITIVE_RATIO_MEASURE(7850.),#239);
#241=PROPERTY_DEFINITION_REPRESENTATION(#246,#243);
#242=PROPERTY_DEFINITION_REPRESENTATION(#247,#244);
#243=REPRESENTATION('material name',(#245),#386);
#244=REPRESENTATION('density',(#240),#386);
#245=DESCRIPTIVE_REPRESENTATION_ITEM('Acier','Acier');
#246=PROPERTY_DEFINITION('material property','material name',#396);
#247=PROPERTY_DEFINITION('material property','density of part',#396);
#248=AXIS2_PLACEMENT_3D('placement',#321,#263,#264);
#249=AXIS2_PLACEMENT_3D('',#322,#265,#266);
#250=AXIS2_PLACEMENT_3D('',#324,#267,#268);
#251=AXIS2_PLACEMENT_3D('',#327,#270,#271);
#252=AXIS2_PLACEMENT_3D('',#328,#272,#273);
#253=AXIS2_PLACEMENT_3D('',#337,#278,#279);
#254=AXIS2_PLACEMENT_3D('',#343,#283,#284);
#255=AXIS2_PLACEMENT_3D('',#349,#288,#289);
#256=AXIS2_PLACEMENT_3D('',#355,#293,#294);
#257=AXIS2_PLACEMENT_3D('',#361,#298,#299);
#258=AXIS2_PLACEMENT_3D('',#367,#303,#304);
#259=AXIS2_PLACEMENT_3D('',#373,#308,#309);
#260=AXIS2_PLACEMENT_3D('',#379,#313,#314);
#261=AXIS2_PLACEMENT_3D('',#382,#317,#318);
#262=AXIS2_PLACEMENT_3D('',#383,#319,#320);
#263=DIRECTION('axis',(0.,0.,1.));
#264=DIRECTION('refdir',(1.,0.,0.));
#265=DIRECTION('center_axis',(0.,0.,-1.));
#266=DIRECTION('ref_axis',(-0.99999390765779,0.00349065141522373,0.));
#267=DIRECTION('center_axis',(0.,0.,-1.));
#268=DIRECTION('ref_axis',(-0.99999390765779,0.00349065141522373,0.));
#269=DIRECTION('',(0.,0.,-1.));
#270=DIRECTION('center_axis',(0.,0.,-1.));
#271=DIRECTION('ref_axis',(-0.99999390765779,0.00349065141522373,0.));
#272=DIRECTION('center_axis',(0.707908668032918,-0.706303983935996,0.));
#273=DIRECTION('ref_axis',(0.706303983935996,0.707908668032918,0.));
#274=DIRECTION('',(-0.706303983935996,-0.707908668032918,0.));
#275=DIRECTION('',(0.,0.,1.));
#276=DIRECTION('',(-0.706303983935996,-0.707908668032918,0.));
#277=DIRECTION('',(0.,0.,-1.));
#278=DIRECTION('center_axis',(0.00113461841266786,-0.999999356320322,0.));
#279=DIRECTION('ref_axis',(0.999999356320322,0.00113461841266786,0.));
#280=DIRECTION('',(-0.999999356320322,-0.00113461841266786,0.));
#281=DIRECTION('',(-0.999999356320322,-0.00113461841266786,0.));
#282=DIRECTION('',(0.,0.,-1.));
#283=DIRECTION('center_axis',(-0.706304010981805,-0.707908641048416,0.));
#284=DIRECTION('ref_axis',(0.707908641048416,-0.706304010981805,0.));
#285=DIRECTION('',(-0.707908641048416,0.706304010981805,0.));
#286=DIRECTION('',(-0.707908641048416,0.706304010981805,0.));
#287=DIRECTION('',(0.,0.,-1.));
#288=DIRECTION('center_axis',(-0.999999356320892,-0.00113461791053186,0.));
#289=DIRECTION('ref_axis',(0.00113461791053186,-0.999999356320891,0.));
#290=DIRECTION('',(-0.00113461791053186,0.999999356320891,0.));
#291=DIRECTION('',(-0.00113461791053186,0.999999356320891,0.));
#292=DIRECTION('',(0.,0.,1.));
#293=DIRECTION('center_axis',(-0.707908667782132,0.706303984187352,0.));
#294=DIRECTION('ref_axis',(-0.706303984187352,-0.707908667782132,0.));
#295=DIRECTION('',(0.706303984187352,0.707908667782132,0.));
#296=DIRECTION('',(0.706303984187352,0.707908667782132,0.));
#297=DIRECTION('',(0.,0.,1.));
#298=DIRECTION('center_axis',(-0.00113461791053186,0.999999356320891,0.));
#299=DIRECTION('ref_axis',(-0.999999356320891,-0.00113461791053186,0.));
#300=DIRECTION('',(0.999999356320891,0.00113461791053186,0.));
#301=DIRECTION('',(0.999999356320891,0.00113461791053186,0.));
#302=DIRECTION('',(0.,0.,1.));
#303=DIRECTION('center_axis',(0.706304119416397,0.707908532859598,0.));
#304=DIRECTION('ref_axis',(-0.707908532859598,0.706304119416397,0.));
#305=DIRECTION('',(0.707908532859598,-0.706304119416397,0.));
#306=DIRECTION('',(0.707908532859598,-0.706304119416397,0.));
#307=DIRECTION('',(0.,0.,1.));
#308=DIRECTION('center_axis',(0.999999356320892,0.00113461791053186,0.));
#309=DIRECTION('ref_axis',(-0.00113461791053186,0.999999356320891,0.));
#310=DIRECTION('',(0.00113461791053186,-0.999999356320891,0.));
#311=DIRECTION('',(0.00113461791053186,-0.999999356320891,0.));
#312=DIRECTION('',(0.,0.,1.));
#313=DIRECTION('center_axis',(0.99999390765779,-0.00349065141522373,0.));
#314=DIRECTION('ref_axis',(0.00349065141522373,0.99999390765779,0.));
#315=DIRECTION('',(-0.00349065141522373,-0.99999390765779,0.));
#316=DIRECTION('',(-0.00349065141522373,-0.99999390765779,0.));
#317=DIRECTION('center_axis',(0.,0.,1.));
#318=DIRECTION('ref_axis',(0.99999390765779,-0.00349065141522373,0.));
#319=DIRECTION('center_axis',(0.,0.,1.));
#320=DIRECTION('ref_axis',(0.99999390765779,-0.00349065141522373,0.));
#321=CARTESIAN_POINT('',(0.,0.,0.));
#322=CARTESIAN_POINT('Origin',(-0.7,-1.7,15.));
#323=CARTESIAN_POINT('',(139.299147072091,-2.18869119813134,15.));
#324=CARTESIAN_POINT('Origin',(-0.7,-1.7,15.));
#325=CARTESIAN_POINT('',(139.299147072091,-2.18869119813134,0.));
#326=CARTESIAN_POINT('',(139.299147072091,-2.18869119813134,15.));
#327=CARTESIAN_POINT('Origin',(-0.7,-1.7,0.));
#328=CARTESIAN_POINT('Origin',(61.4280034009268,-151.754282286941,0.));
#329=CARTESIAN_POINT('',(149.212308340012,-63.7705361988613,0.));
#330=CARTESIAN_POINT('',(61.5935927661996,-151.588316711669,0.));
#331=CARTESIAN_POINT('',(83.4339973094613,-129.698291961474,0.));
#332=CARTESIAN_POINT('',(149.212308340012,-63.7705361988613,15.));
#333=CARTESIAN_POINT('',(149.212308340012,-63.7705361988613,0.));
#334=CARTESIAN_POINT('',(61.5935927661996,-151.588316711669,15.));
#335=CARTESIAN_POINT('',(83.4339973094613,-129.698291961474,15.));
#336=CARTESIAN_POINT('',(61.5935927661996,-151.588316711669,0.));
#337=CARTESIAN_POINT('Origin',(-62.9024721980918,-151.729572330205,0.));
#338=CARTESIAN_POINT('',(-62.6680274814453,-151.729306324742,0.));
#339=CARTESIAN_POINT('',(-31.7569415798216,-151.694234014947,0.));
#340=CARTESIAN_POINT('',(-62.6680274814453,-151.729306324742,15.));
#341=CARTESIAN_POINT('',(-31.7569415798216,-151.694234014947,15.));
#342=CARTESIAN_POINT('',(-62.6680274814453,-151.729306324742,0.));
#343=CARTESIAN_POINT('Origin',(-150.799926797055,-63.7971772722267,0.));
#344=CARTESIAN_POINT('',(-150.633961236959,-63.962766635011,0.));
#345=CARTESIAN_POINT('',(-128.744117902,-85.8029918430933,0.));
#346=CARTESIAN_POINT('',(-150.633961236959,-63.962766635011,15.));
#347=CARTESIAN_POINT('',(-128.744117902,-85.8029918430933,15.));
#348=CARTESIAN_POINT('',(-150.633961236959,-63.962766635011,0.));
#349=CARTESIAN_POINT('Origin',(-150.77521680836,60.5333118829501,0.));
#350=CARTESIAN_POINT('',(-150.774950803029,60.2988671790194,0.));
#351=CARTESIAN_POINT('',(-150.739836614049,29.3508572356656,0.));
#352=CARTESIAN_POINT('',(-150.774950803029,60.2988671790194,15.));
#353=CARTESIAN_POINT('',(-150.739836614049,29.3508572356656,15.));
#354=CARTESIAN_POINT('',(-150.774950803029,60.2988671790194,0.));
#355=CARTESIAN_POINT('Origin',(-62.8428149173979,148.430780014899,0.));
#356=CARTESIAN_POINT('',(-63.0084042827641,148.264814439651,0.));
#357=CARTESIAN_POINT('',(-84.885692696315,126.337822036598,0.));
#358=CARTESIAN_POINT('',(-63.0084042827641,148.264814439651,15.));
#359=CARTESIAN_POINT('',(-84.885692696315,126.337822036598,15.));
#360=CARTESIAN_POINT('',(-63.0084042827641,148.264814439651,0.));
#361=CARTESIAN_POINT('Origin',(61.4876742226477,148.406070011038,0.));
#362=CARTESIAN_POINT('',(61.2532294553814,148.405804005635,0.));
#363=CARTESIAN_POINT('',(30.2679421321234,148.370647521045,0.));
#364=CARTESIAN_POINT('',(61.2532294553814,148.405804005635,15.));
#365=CARTESIAN_POINT('',(30.2679421321234,148.370647521045,15.));
#366=CARTESIAN_POINT('',(61.2532294553813,148.405804005635,0.));
#367=CARTESIAN_POINT('Origin',(149.385108425134,60.4736683146115,0.));
#368=CARTESIAN_POINT('',(149.219142926354,60.6392576669472,0.));
#369=CARTESIAN_POINT('',(127.291999843562,82.5167047770249,0.));
#370=CARTESIAN_POINT('',(149.219142926354,60.6392576669472,15.));
#371=CARTESIAN_POINT('',(127.291999843562,82.5167047770249,15.));
#372=CARTESIAN_POINT('',(149.219142926354,60.6392576669472,0.));
#373=CARTESIAN_POINT('Origin',(149.323998472348,-31.7755345971425,0.));
#374=CARTESIAN_POINT('',(149.323996987184,-31.7742256423578,0.));
#375=CARTESIAN_POINT('',(149.306817897575,-16.6333765589263,0.));
#376=CARTESIAN_POINT('',(149.323996987184,-31.7742256423578,15.));
#377=CARTESIAN_POINT('',(149.306817897575,-16.6333765589263,15.));
#378=CARTESIAN_POINT('',(149.323996987184,-31.7742256423578,0.));
#379=CARTESIAN_POINT('Origin',(149.211495322668,-64.0034475653418,0.));
#380=CARTESIAN_POINT('',(149.319387870749,-33.0946348744447,0.));
#381=CARTESIAN_POINT('',(149.319387870749,-33.0946348744447,15.));
#382=CARTESIAN_POINT('Origin',(-0.781600887024784,-1.6614921450402,15.));
#383=CARTESIAN_POINT('Origin',(-0.781600887024784,-1.6614921450402,0.));
#384=UNCERTAINTY_MEASURE_WITH_UNIT(LENGTH_MEASURE(0.01),#388,
'DISTANCE_ACCURACY_VALUE',
'Maximum model space distance between geometric entities at asserted c
onnectivities');
#385=UNCERTAINTY_MEASURE_WITH_UNIT(LENGTH_MEASURE(0.01),#388,
'DISTANCE_ACCURACY_VALUE',
'Maximum model space distance between geometric entities at asserted c
onnectivities');
#386=(
GEOMETRIC_REPRESENTATION_CONTEXT(3)
GLOBAL_UNCERTAINTY_ASSIGNED_CONTEXT((#384))
GLOBAL_UNIT_ASSIGNED_CONTEXT((#388,#390,#391))
REPRESENTATION_CONTEXT('','3D')
);
#387=(
GEOMETRIC_REPRESENTATION_CONTEXT(3)
GLOBAL_UNCERTAINTY_ASSIGNED_CONTEXT((#385))
GLOBAL_UNIT_ASSIGNED_CONTEXT((#388,#390,#391))
REPRESENTATION_CONTEXT('','3D')
);
#388=(
LENGTH_UNIT()
NAMED_UNIT(*)
SI_UNIT(.MILLI.,.METRE.)
);
#389=(
LENGTH_UNIT()
NAMED_UNIT(*)
SI_UNIT($,.METRE.)
);
#390=(
NAMED_UNIT(*)
PLANE_ANGLE_UNIT()
SI_UNIT($,.RADIAN.)
);
#391=(
NAMED_UNIT(*)
SI_UNIT($,.STERADIAN.)
SOLID_ANGLE_UNIT()
);
#392=SHAPE_DEFINITION_REPRESENTATION(#393,#394);
#393=PRODUCT_DEFINITION_SHAPE('',$,#396);
#394=SHAPE_REPRESENTATION('',(#248),#386);
#395=PRODUCT_DEFINITION_CONTEXT('part definition',#400,'design');
#396=PRODUCT_DEFINITION('cage secondaire','cage secondaire v6',#397,#395);
#397=PRODUCT_DEFINITION_FORMATION('',$,#402);
#398=PRODUCT_RELATED_PRODUCT_CATEGORY('cage secondaire v6',
'cage secondaire v6',(#402));
#399=APPLICATION_PROTOCOL_DEFINITION('international standard',
'automotive_design',2009,#400);
#400=APPLICATION_CONTEXT(
'Core Data for Automotive Mechanical Design Process');
#401=PRODUCT_CONTEXT('part definition',#400,'mechanical');
#402=PRODUCT('cage secondaire','cage secondaire v6',$,(#401));
#403=PRESENTATION_STYLE_ASSIGNMENT((#404));
#404=SURFACE_STYLE_USAGE(.BOTH.,#405);
#405=SURFACE_SIDE_STYLE('',(#406));
#406=SURFACE_STYLE_FILL_AREA(#407);
#407=FILL_AREA_STYLE('Acier - Satin\X\E9',(#408));
#408=FILL_AREA_STYLE_COLOUR('Acier - Satin\X\E9',#409);
#409=COLOUR_RGB('Acier - Satin\X\E9',0.627450980392157,0.627450980392157,
0.627450980392157);
ENDSEC;
END-ISO-10303-21;
