ISO-10303-21;
HEADER;
/* Generated by software containing ST-Developer
 * from STEP Tools, Inc. (www.steptools.com) 
 */

FILE_DESCRIPTION(
/* description */ (''),
/* implementation_level */ '2;1');

FILE_NAME(
/* name */ 
'C:/Users/fixfl/OneDrive/Bureau/Phare 4L/Section Reducer v9.step',
/* time_stamp */ '2022-01-18T21:27:51+01:00',
/* author */ (''),
/* organization */ (''),
/* preprocessor_version */ 'ST-DEVELOPER v18.1',
/* originating_system */ 'Autodesk Translation Framework v10.10.0.1391',

/* authorisation */ '');

FILE_SCHEMA (('AUTOMOTIVE_DESIGN { 1 0 10303 214 3 1 1 }'));
ENDSEC;

DATA;
#10=MECHANICAL_DESIGN_GEOMETRIC_PRESENTATION_REPRESENTATION('',(#13),#341);
#11=SHAPE_REPRESENTATION_RELATIONSHIP('SRR','None',#348,#12);
#12=ADVANCED_BREP_SHAPE_REPRESENTATION('',(#14),#340);
#13=STYLED_ITEM('',(#357),#14);
#14=MANIFOLD_SOLID_BREP('Corps1',#183);
#15=CONICAL_SURFACE('',#206,4.025,0.785398163397448);
#16=CONICAL_SURFACE('',#214,5.25,0.785398163397448);
#17=CONICAL_SURFACE('',#215,8.9,0.785398163397449);
#18=CONICAL_SURFACE('',#219,8.9,0.785398163397448);
#19=CONICAL_SURFACE('',#223,4.025,0.785398163397448);
#20=FACE_BOUND('',#60,.T.);
#21=FACE_BOUND('',#63,.T.);
#22=FACE_BOUND('',#70,.T.);
#23=PLANE('',#204);
#24=PLANE('',#209);
#25=PLANE('',#221);
#26=LINE('',#300,#34);
#27=LINE('',#308,#35);
#28=LINE('',#318,#36);
#29=LINE('',#320,#37);
#30=LINE('',#323,#38);
#31=LINE('',#328,#39);
#32=LINE('',#332,#40);
#33=LINE('',#337,#41);
#34=VECTOR('',#240,5.35);
#35=VECTOR('',#249,4.025);
#36=VECTOR('',#262,3.925);
#37=VECTOR('',#265,5.25);
#38=VECTOR('',#268,8.9);
#39=VECTOR('',#275,9.);
#40=VECTOR('',#280,8.9);
#41=VECTOR('',#287,4.025);
#42=CYLINDRICAL_SURFACE('',#202,5.35);
#43=CYLINDRICAL_SURFACE('',#211,3.925);
#44=CYLINDRICAL_SURFACE('',#217,9.);
#45=FACE_OUTER_BOUND('',#57,.T.);
#46=FACE_OUTER_BOUND('',#58,.T.);
#47=FACE_OUTER_BOUND('',#59,.T.);
#48=FACE_OUTER_BOUND('',#61,.T.);
#49=FACE_OUTER_BOUND('',#62,.T.);
#50=FACE_OUTER_BOUND('',#64,.T.);
#51=FACE_OUTER_BOUND('',#65,.T.);
#52=FACE_OUTER_BOUND('',#66,.T.);
#53=FACE_OUTER_BOUND('',#67,.T.);
#54=FACE_OUTER_BOUND('',#68,.T.);
#55=FACE_OUTER_BOUND('',#69,.T.);
#56=FACE_OUTER_BOUND('',#71,.T.);
#57=EDGE_LOOP('',(#124,#125,#126,#127,#128));
#58=EDGE_LOOP('',(#129,#130,#131,#132,#133));
#59=EDGE_LOOP('',(#134));
#60=EDGE_LOOP('',(#135));
#61=EDGE_LOOP('',(#136,#137,#138,#139));
#62=EDGE_LOOP('',(#140));
#63=EDGE_LOOP('',(#141));
#64=EDGE_LOOP('',(#142,#143,#144,#145,#146));
#65=EDGE_LOOP('',(#147,#148,#149,#150));
#66=EDGE_LOOP('',(#151,#152,#153,#154));
#67=EDGE_LOOP('',(#155,#156,#157,#158));
#68=EDGE_LOOP('',(#159,#160,#161,#162));
#69=EDGE_LOOP('',(#163));
#70=EDGE_LOOP('',(#164));
#71=EDGE_LOOP('',(#165,#166,#167,#168,#169));
#72=CIRCLE('',#198,5.35);
#73=CIRCLE('',#199,0.2);
#74=CIRCLE('',#200,5.55);
#75=CIRCLE('',#201,5.35);
#76=CIRCLE('',#203,5.35);
#77=CIRCLE('',#205,8.8);
#78=CIRCLE('',#207,4.125);
#79=CIRCLE('',#208,3.925);
#80=CIRCLE('',#210,5.15);
#81=CIRCLE('',#212,3.925);
#82=CIRCLE('',#213,3.925);
#83=CIRCLE('',#216,9.);
#84=CIRCLE('',#218,9.);
#85=CIRCLE('',#220,8.8);
#86=CIRCLE('',#222,4.125);
#87=VERTEX_POINT('',#290);
#88=VERTEX_POINT('',#291);
#89=VERTEX_POINT('',#293);
#90=VERTEX_POINT('',#298);
#91=VERTEX_POINT('',#302);
#92=VERTEX_POINT('',#305);
#93=VERTEX_POINT('',#307);
#94=VERTEX_POINT('',#311);
#95=VERTEX_POINT('',#314);
#96=VERTEX_POINT('',#315);
#97=VERTEX_POINT('',#322);
#98=VERTEX_POINT('',#326);
#99=VERTEX_POINT('',#330);
#100=VERTEX_POINT('',#334);
#101=EDGE_CURVE('',#87,#88,#72,.T.);
#102=EDGE_CURVE('',#88,#89,#73,.T.);
#103=EDGE_CURVE('',#89,#89,#74,.T.);
#104=EDGE_CURVE('',#88,#87,#75,.T.);
#105=EDGE_CURVE('',#90,#90,#76,.T.);
#106=EDGE_CURVE('',#90,#87,#26,.T.);
#107=EDGE_CURVE('',#91,#91,#77,.T.);
#108=EDGE_CURVE('',#92,#92,#78,.T.);
#109=EDGE_CURVE('',#92,#93,#27,.T.);
#110=EDGE_CURVE('',#93,#93,#79,.T.);
#111=EDGE_CURVE('',#94,#94,#80,.T.);
#112=EDGE_CURVE('',#95,#96,#81,.T.);
#113=EDGE_CURVE('',#96,#95,#82,.T.);
#114=EDGE_CURVE('',#96,#93,#28,.T.);
#115=EDGE_CURVE('',#94,#90,#29,.T.);
#116=EDGE_CURVE('',#91,#97,#30,.T.);
#117=EDGE_CURVE('',#97,#97,#83,.T.);
#118=EDGE_CURVE('',#98,#98,#84,.T.);
#119=EDGE_CURVE('',#98,#97,#31,.T.);
#120=EDGE_CURVE('',#99,#99,#85,.T.);
#121=EDGE_CURVE('',#99,#98,#32,.T.);
#122=EDGE_CURVE('',#100,#100,#86,.T.);
#123=EDGE_CURVE('',#100,#95,#33,.T.);
#124=ORIENTED_EDGE('',*,*,#101,.T.);
#125=ORIENTED_EDGE('',*,*,#102,.T.);
#126=ORIENTED_EDGE('',*,*,#103,.T.);
#127=ORIENTED_EDGE('',*,*,#102,.F.);
#128=ORIENTED_EDGE('',*,*,#104,.T.);
#129=ORIENTED_EDGE('',*,*,#105,.F.);
#130=ORIENTED_EDGE('',*,*,#106,.T.);
#131=ORIENTED_EDGE('',*,*,#104,.F.);
#132=ORIENTED_EDGE('',*,*,#101,.F.);
#133=ORIENTED_EDGE('',*,*,#106,.F.);
#134=ORIENTED_EDGE('',*,*,#107,.F.);
#135=ORIENTED_EDGE('',*,*,#103,.F.);
#136=ORIENTED_EDGE('',*,*,#108,.T.);
#137=ORIENTED_EDGE('',*,*,#109,.T.);
#138=ORIENTED_EDGE('',*,*,#110,.T.);
#139=ORIENTED_EDGE('',*,*,#109,.F.);
#140=ORIENTED_EDGE('',*,*,#111,.F.);
#141=ORIENTED_EDGE('',*,*,#108,.F.);
#142=ORIENTED_EDGE('',*,*,#112,.F.);
#143=ORIENTED_EDGE('',*,*,#113,.F.);
#144=ORIENTED_EDGE('',*,*,#114,.T.);
#145=ORIENTED_EDGE('',*,*,#110,.F.);
#146=ORIENTED_EDGE('',*,*,#114,.F.);
#147=ORIENTED_EDGE('',*,*,#111,.T.);
#148=ORIENTED_EDGE('',*,*,#115,.T.);
#149=ORIENTED_EDGE('',*,*,#105,.T.);
#150=ORIENTED_EDGE('',*,*,#115,.F.);
#151=ORIENTED_EDGE('',*,*,#107,.T.);
#152=ORIENTED_EDGE('',*,*,#116,.T.);
#153=ORIENTED_EDGE('',*,*,#117,.T.);
#154=ORIENTED_EDGE('',*,*,#116,.F.);
#155=ORIENTED_EDGE('',*,*,#118,.F.);
#156=ORIENTED_EDGE('',*,*,#119,.T.);
#157=ORIENTED_EDGE('',*,*,#117,.F.);
#158=ORIENTED_EDGE('',*,*,#119,.F.);
#159=ORIENTED_EDGE('',*,*,#120,.T.);
#160=ORIENTED_EDGE('',*,*,#121,.T.);
#161=ORIENTED_EDGE('',*,*,#118,.T.);
#162=ORIENTED_EDGE('',*,*,#121,.F.);
#163=ORIENTED_EDGE('',*,*,#120,.F.);
#164=ORIENTED_EDGE('',*,*,#122,.F.);
#165=ORIENTED_EDGE('',*,*,#122,.T.);
#166=ORIENTED_EDGE('',*,*,#123,.T.);
#167=ORIENTED_EDGE('',*,*,#112,.T.);
#168=ORIENTED_EDGE('',*,*,#113,.T.);
#169=ORIENTED_EDGE('',*,*,#123,.F.);
#170=TOROIDAL_SURFACE('',#197,5.55,0.2);
#171=ADVANCED_FACE('',(#45),#170,.F.);
#172=ADVANCED_FACE('',(#46),#42,.T.);
#173=ADVANCED_FACE('',(#47,#20),#23,.T.);
#174=ADVANCED_FACE('',(#48),#15,.F.);
#175=ADVANCED_FACE('',(#49,#21),#24,.T.);
#176=ADVANCED_FACE('',(#50),#43,.F.);
#177=ADVANCED_FACE('',(#51),#16,.T.);
#178=ADVANCED_FACE('',(#52),#17,.T.);
#179=ADVANCED_FACE('',(#53),#44,.T.);
#180=ADVANCED_FACE('',(#54),#18,.T.);
#181=ADVANCED_FACE('',(#55,#22),#25,.F.);
#182=ADVANCED_FACE('',(#56),#19,.F.);
#183=CLOSED_SHELL('',(#171,#172,#173,#174,#175,#176,#177,#178,#179,#180,
#181,#182));
#184=DERIVED_UNIT_ELEMENT(#186,1.);
#185=DERIVED_UNIT_ELEMENT(#343,-3.);
#186=(
MASS_UNIT()
NAMED_UNIT(*)
SI_UNIT(.KILO.,.GRAM.)
);
#187=DERIVED_UNIT((#184,#185));
#188=MEASURE_REPRESENTATION_ITEM('density measure',
POSITIVE_RATIO_MEASURE(7850.),#187);
#189=PROPERTY_DEFINITION_REPRESENTATION(#194,#191);
#190=PROPERTY_DEFINITION_REPRESENTATION(#195,#192);
#191=REPRESENTATION('material name',(#193),#340);
#192=REPRESENTATION('density',(#188),#340);
#193=DESCRIPTIVE_REPRESENTATION_ITEM('Acier','Acier');
#194=PROPERTY_DEFINITION('material property','material name',#350);
#195=PROPERTY_DEFINITION('material property','density of part',#350);
#196=AXIS2_PLACEMENT_3D('placement',#288,#224,#225);
#197=AXIS2_PLACEMENT_3D('',#289,#226,#227);
#198=AXIS2_PLACEMENT_3D('',#292,#228,#229);
#199=AXIS2_PLACEMENT_3D('',#294,#230,#231);
#200=AXIS2_PLACEMENT_3D('',#295,#232,#233);
#201=AXIS2_PLACEMENT_3D('',#296,#234,#235);
#202=AXIS2_PLACEMENT_3D('',#297,#236,#237);
#203=AXIS2_PLACEMENT_3D('',#299,#238,#239);
#204=AXIS2_PLACEMENT_3D('',#301,#241,#242);
#205=AXIS2_PLACEMENT_3D('',#303,#243,#244);
#206=AXIS2_PLACEMENT_3D('',#304,#245,#246);
#207=AXIS2_PLACEMENT_3D('',#306,#247,#248);
#208=AXIS2_PLACEMENT_3D('',#309,#250,#251);
#209=AXIS2_PLACEMENT_3D('',#310,#252,#253);
#210=AXIS2_PLACEMENT_3D('',#312,#254,#255);
#211=AXIS2_PLACEMENT_3D('',#313,#256,#257);
#212=AXIS2_PLACEMENT_3D('',#316,#258,#259);
#213=AXIS2_PLACEMENT_3D('',#317,#260,#261);
#214=AXIS2_PLACEMENT_3D('',#319,#263,#264);
#215=AXIS2_PLACEMENT_3D('',#321,#266,#267);
#216=AXIS2_PLACEMENT_3D('',#324,#269,#270);
#217=AXIS2_PLACEMENT_3D('',#325,#271,#272);
#218=AXIS2_PLACEMENT_3D('',#327,#273,#274);
#219=AXIS2_PLACEMENT_3D('',#329,#276,#277);
#220=AXIS2_PLACEMENT_3D('',#331,#278,#279);
#221=AXIS2_PLACEMENT_3D('',#333,#281,#282);
#222=AXIS2_PLACEMENT_3D('',#335,#283,#284);
#223=AXIS2_PLACEMENT_3D('',#336,#285,#286);
#224=DIRECTION('axis',(0.,0.,1.));
#225=DIRECTION('refdir',(1.,0.,0.));
#226=DIRECTION('center_axis',(-1.,0.,0.));
#227=DIRECTION('ref_axis',(0.,0.,1.));
#228=DIRECTION('center_axis',(-1.,0.,0.));
#229=DIRECTION('ref_axis',(0.,1.,0.));
#230=DIRECTION('center_axis',(0.,-1.,1.22464679914735E-16));
#231=DIRECTION('ref_axis',(0.,-1.22464679914735E-16,-1.));
#232=DIRECTION('center_axis',(1.,0.,0.));
#233=DIRECTION('ref_axis',(0.,1.,0.));
#234=DIRECTION('center_axis',(-1.,0.,0.));
#235=DIRECTION('ref_axis',(0.,1.,0.));
#236=DIRECTION('center_axis',(1.,0.,0.));
#237=DIRECTION('ref_axis',(0.,1.,0.));
#238=DIRECTION('center_axis',(1.,0.,0.));
#239=DIRECTION('ref_axis',(0.,1.,0.));
#240=DIRECTION('',(-1.,0.,0.));
#241=DIRECTION('center_axis',(1.,0.,0.));
#242=DIRECTION('ref_axis',(0.,1.,0.));
#243=DIRECTION('center_axis',(-1.,0.,0.));
#244=DIRECTION('ref_axis',(0.,1.,0.));
#245=DIRECTION('center_axis',(1.,0.,0.));
#246=DIRECTION('ref_axis',(0.,-1.,0.));
#247=DIRECTION('center_axis',(1.,0.,0.));
#248=DIRECTION('ref_axis',(0.,-1.,0.));
#249=DIRECTION('',(-0.707106781186548,-0.707106781186548,-8.65956056235493E-17));
#250=DIRECTION('center_axis',(-1.,0.,0.));
#251=DIRECTION('ref_axis',(0.,-1.,0.));
#252=DIRECTION('center_axis',(1.,0.,0.));
#253=DIRECTION('ref_axis',(0.,1.,0.));
#254=DIRECTION('center_axis',(-1.,0.,0.));
#255=DIRECTION('ref_axis',(0.,1.,0.));
#256=DIRECTION('center_axis',(1.,0.,0.));
#257=DIRECTION('ref_axis',(0.,-1.,0.));
#258=DIRECTION('center_axis',(1.,0.,0.));
#259=DIRECTION('ref_axis',(0.,1.,0.));
#260=DIRECTION('center_axis',(1.,0.,0.));
#261=DIRECTION('ref_axis',(0.,1.,0.));
#262=DIRECTION('',(1.,0.,0.));
#263=DIRECTION('center_axis',(-1.,0.,0.));
#264=DIRECTION('ref_axis',(0.,1.,0.));
#265=DIRECTION('',(-0.707106781186547,-0.707106781186547,-8.65956056235493E-17));
#266=DIRECTION('center_axis',(-1.,0.,0.));
#267=DIRECTION('ref_axis',(0.,1.,0.));
#268=DIRECTION('',(-0.707106781186547,-0.707106781186548,-8.65956056235494E-17));
#269=DIRECTION('center_axis',(1.,0.,0.));
#270=DIRECTION('ref_axis',(0.,1.,0.));
#271=DIRECTION('center_axis',(-1.,0.,0.));
#272=DIRECTION('ref_axis',(0.,1.,0.));
#273=DIRECTION('center_axis',(-1.,0.,0.));
#274=DIRECTION('ref_axis',(0.,1.,0.));
#275=DIRECTION('',(1.,0.,0.));
#276=DIRECTION('center_axis',(1.,0.,0.));
#277=DIRECTION('ref_axis',(0.,1.,0.));
#278=DIRECTION('center_axis',(1.,0.,0.));
#279=DIRECTION('ref_axis',(0.,1.,0.));
#280=DIRECTION('',(0.707106781186548,-0.707106781186548,8.65956056235493E-17));
#281=DIRECTION('center_axis',(1.,0.,0.));
#282=DIRECTION('ref_axis',(0.,1.,0.));
#283=DIRECTION('center_axis',(-1.,0.,0.));
#284=DIRECTION('ref_axis',(0.,1.,0.));
#285=DIRECTION('center_axis',(-1.,0.,0.));
#286=DIRECTION('ref_axis',(0.,1.,0.));
#287=DIRECTION('',(0.707106781186548,0.707106781186548,-8.65956056235493E-17));
#288=CARTESIAN_POINT('',(0.,0.,0.));
#289=CARTESIAN_POINT('Origin',(0.2,0.,0.));
#290=CARTESIAN_POINT('',(0.2,-5.35,6.55186037543834E-16));
#291=CARTESIAN_POINT('',(0.2,-6.55186037543834E-16,-5.35));
#292=CARTESIAN_POINT('Origin',(0.2,0.,0.));
#293=CARTESIAN_POINT('',(0.,-6.79678973526781E-16,-5.55));
#294=CARTESIAN_POINT('Origin',(0.2,-6.79678973526781E-16,-5.55));
#295=CARTESIAN_POINT('Origin',(0.,0.,0.));
#296=CARTESIAN_POINT('Origin',(0.2,0.,0.));
#297=CARTESIAN_POINT('Origin',(0.,0.,0.));
#298=CARTESIAN_POINT('',(11.3,-5.35,-6.55186037543834E-16));
#299=CARTESIAN_POINT('Origin',(11.3,0.,0.));
#300=CARTESIAN_POINT('',(0.,-5.35,-6.55186037543834E-16));
#301=CARTESIAN_POINT('Origin',(0.,0.,0.));
#302=CARTESIAN_POINT('',(0.,-8.8,1.07768918324967E-15));
#303=CARTESIAN_POINT('Origin',(0.,0.,0.));
#304=CARTESIAN_POINT('Origin',(11.4,0.,0.));
#305=CARTESIAN_POINT('',(11.5,4.125,5.05166804648283E-16));
#306=CARTESIAN_POINT('Origin',(11.5,0.,0.));
#307=CARTESIAN_POINT('',(11.3,3.925,-4.80673868665336E-16));
#308=CARTESIAN_POINT('',(11.4,4.025,4.9292033665681E-16));
#309=CARTESIAN_POINT('Origin',(11.3,0.,0.));
#310=CARTESIAN_POINT('Origin',(11.5,0.,0.));
#311=CARTESIAN_POINT('',(11.5,-5.15,6.30693101560887E-16));
#312=CARTESIAN_POINT('Origin',(11.5,0.,0.));
#313=CARTESIAN_POINT('Origin',(7.,0.,0.));
#314=CARTESIAN_POINT('',(-2.8,-3.925,-4.80673868665336E-16));
#315=CARTESIAN_POINT('',(-2.8,3.925,4.80673868665336E-16));
#316=CARTESIAN_POINT('Origin',(-2.8,0.,0.));
#317=CARTESIAN_POINT('Origin',(-2.8,0.,0.));
#318=CARTESIAN_POINT('',(7.,3.925,4.80673868665336E-16));
#319=CARTESIAN_POINT('Origin',(11.4,0.,0.));
#320=CARTESIAN_POINT('',(11.4,-5.25,-6.42939569552361E-16));
#321=CARTESIAN_POINT('Origin',(-0.1,0.,0.));
#322=CARTESIAN_POINT('',(-0.2,-9.,-1.10218211923262E-15));
#323=CARTESIAN_POINT('',(-0.1,-8.9,-1.08993565124114E-15));
#324=CARTESIAN_POINT('Origin',(-0.2,0.,0.));
#325=CARTESIAN_POINT('Origin',(0.,0.,0.));
#326=CARTESIAN_POINT('',(-2.8,-9.,1.10218211923262E-15));
#327=CARTESIAN_POINT('Origin',(-2.8,0.,0.));
#328=CARTESIAN_POINT('',(0.,-9.,1.10218211923262E-15));
#329=CARTESIAN_POINT('Origin',(-2.9,0.,0.));
#330=CARTESIAN_POINT('',(-3.,-8.8,-1.07768918324967E-15));
#331=CARTESIAN_POINT('Origin',(-3.,0.,0.));
#332=CARTESIAN_POINT('',(-2.9,-8.9,1.08993565124114E-15));
#333=CARTESIAN_POINT('Origin',(-3.,0.,0.));
#334=CARTESIAN_POINT('',(-3.,-4.125,5.05166804648283E-16));
#335=CARTESIAN_POINT('Origin',(-3.,0.,0.));
#336=CARTESIAN_POINT('Origin',(-2.9,0.,0.));
#337=CARTESIAN_POINT('',(-2.9,-4.025,4.9292033665681E-16));
#338=UNCERTAINTY_MEASURE_WITH_UNIT(LENGTH_MEASURE(0.01),#342,
'DISTANCE_ACCURACY_VALUE',
'Maximum model space distance between geometric entities at asserted c
onnectivities');
#339=UNCERTAINTY_MEASURE_WITH_UNIT(LENGTH_MEASURE(0.01),#342,
'DISTANCE_ACCURACY_VALUE',
'Maximum model space distance between geometric entities at asserted c
onnectivities');
#340=(
GEOMETRIC_REPRESENTATION_CONTEXT(3)
GLOBAL_UNCERTAINTY_ASSIGNED_CONTEXT((#338))
GLOBAL_UNIT_ASSIGNED_CONTEXT((#342,#344,#345))
REPRESENTATION_CONTEXT('','3D')
);
#341=(
GEOMETRIC_REPRESENTATION_CONTEXT(3)
GLOBAL_UNCERTAINTY_ASSIGNED_CONTEXT((#339))
GLOBAL_UNIT_ASSIGNED_CONTEXT((#342,#344,#345))
REPRESENTATION_CONTEXT('','3D')
);
#342=(
LENGTH_UNIT()
NAMED_UNIT(*)
SI_UNIT(.MILLI.,.METRE.)
);
#343=(
LENGTH_UNIT()
NAMED_UNIT(*)
SI_UNIT($,.METRE.)
);
#344=(
NAMED_UNIT(*)
PLANE_ANGLE_UNIT()
SI_UNIT($,.RADIAN.)
);
#345=(
NAMED_UNIT(*)
SI_UNIT($,.STERADIAN.)
SOLID_ANGLE_UNIT()
);
#346=SHAPE_DEFINITION_REPRESENTATION(#347,#348);
#347=PRODUCT_DEFINITION_SHAPE('',$,#350);
#348=SHAPE_REPRESENTATION('',(#196),#340);
#349=PRODUCT_DEFINITION_CONTEXT('part definition',#354,'design');
#350=PRODUCT_DEFINITION('Section Reducer','Section Reducer v9',#351,#349);
#351=PRODUCT_DEFINITION_FORMATION('',$,#356);
#352=PRODUCT_RELATED_PRODUCT_CATEGORY('Section Reducer v9',
'Section Reducer v9',(#356));
#353=APPLICATION_PROTOCOL_DEFINITION('international standard',
'automotive_design',2009,#354);
#354=APPLICATION_CONTEXT(
'Core Data for Automotive Mechanical Design Process');
#355=PRODUCT_CONTEXT('part definition',#354,'mechanical');
#356=PRODUCT('Section Reducer','Section Reducer v9',$,(#355));
#357=PRESENTATION_STYLE_ASSIGNMENT((#358));
#358=SURFACE_STYLE_USAGE(.BOTH.,#359);
#359=SURFACE_SIDE_STYLE('',(#360));
#360=SURFACE_STYLE_FILL_AREA(#361);
#361=FILL_AREA_STYLE('Acier - Satin\X\E9',(#362));
#362=FILL_AREA_STYLE_COLOUR('Acier - Satin\X\E9',#363);
#363=COLOUR_RGB('Acier - Satin\X\E9',0.627450980392157,0.627450980392157,
0.627450980392157);
ENDSEC;
END-ISO-10303-21;
