ISO-10303-21;
HEADER;
FILE_DESCRIPTION (( 'STEP AP203' ),
    '1' );
FILE_NAME ('ManchonV3 14mm.STEP',
    '2020-02-02T10:39:38',
    ( '' ),
    ( '' ),
    'SwSTEP 2.0',
    'SolidWorks 2017',
    '' );
FILE_SCHEMA (( 'CONFIG_CONTROL_DESIGN' ));
ENDSEC;

DATA;
#1 = CC_DESIGN_PERSON_AND_ORGANIZATION_ASSIGNMENT ( #116, #47, ( #149 ) ) ;
#2 = ORIENTED_EDGE ( 'NONE', *, *, #231, .F. ) ;
#3 = CARTESIAN_POINT ( 'NONE',  ( 0.0000000000000000000, 0.0000000000000000000, 0.0000000000000000000 ) ) ;
#4 = CC_DESIGN_PERSON_AND_ORGANIZATION_ASSIGNMENT ( #196, #264, ( #87 ) ) ;
#5 = DIRECTION ( 'NONE',  ( 1.000000000000000000, 0.0000000000000000000, 0.0000000000000000000 ) ) ;
#6 = FACE_OUTER_BOUND ( 'NONE', #49, .T. ) ;
#7 = CARTESIAN_POINT ( 'NONE',  ( 0.0000000000000000000, 0.0000000000000000000, 0.0000000000000000000 ) ) ;
#8 = EDGE_LOOP ( 'NONE', ( #280, #234 ) ) ;
#9 = ORIENTED_EDGE ( 'NONE', *, *, #28, .F. ) ;
#10 = APPROVAL_PERSON_ORGANIZATION ( #172, #227, #291 ) ;
#11 = AXIS2_PLACEMENT_3D ( 'NONE', #168, #118, #290 ) ;
#12 = ORIENTED_EDGE ( 'NONE', *, *, #180, .T. ) ;
#13 = APPLICATION_CONTEXT ( 'configuration controlled 3d designs of mechanical parts and assemblies' ) ;
#14 = CARTESIAN_POINT ( 'NONE',  ( -6.999999999999999100, 0.0000000000000000000, 5.000000000000000000 ) ) ;
#15 = AXIS2_PLACEMENT_3D ( 'NONE', #107, #57, #135 ) ;
#16 = ORIENTED_EDGE ( 'NONE', *, *, #114, .T. ) ;
#17 = DIRECTION ( 'NONE',  ( 1.000000000000000000, 0.0000000000000000000, 0.0000000000000000000 ) ) ;
#18 = CIRCLE ( 'NONE', #11, 5.000000000000000000 ) ;
#19 = ORIENTED_EDGE ( 'NONE', *, *, #297, .F. ) ;
#20 = ADVANCED_FACE ( 'NONE', ( #183, #215 ), #81, .F. ) ;
#21 = ORGANIZATION ( 'UNSPECIFIED', 'UNSPECIFIED', '' ) ;
#22 = LINE ( 'NONE', #189, #256 ) ;
#23 = CC_DESIGN_APPROVAL ( #298, ( #87 ) ) ;
#24 = AXIS2_PLACEMENT_3D ( 'NONE', #71, #171, #169 ) ;
#25 = CARTESIAN_POINT ( 'NONE',  ( 0.0000000000000000000, 0.0000000000000000000, 0.0000000000000000000 ) ) ;
#26 = ORIENTED_EDGE ( 'NONE', *, *, #212, .T. ) ;
#27 = DIRECTION ( 'NONE',  ( 0.0000000000000000000, 0.0000000000000000000, 1.000000000000000000 ) ) ;
#28 = EDGE_CURVE ( 'NONE', #65, #89, #137, .T. ) ;
#29 = CARTESIAN_POINT ( 'NONE',  ( 3.399999999999999900, 4.163799117101000600E-016, 15.00000000000000000 ) ) ;
#30 = LOCAL_TIME ( 11, 39, 38.00000000000000000, #143 ) ;
#31 = AXIS2_PLACEMENT_3D ( 'NONE', #250, #110, #285 ) ;
#32 = LINE ( 'NONE', #159, #83 ) ;
#33 = DIRECTION ( 'NONE',  ( -1.000000000000000000, 0.0000000000000000000, 0.0000000000000000000 ) ) ;
#34 = CARTESIAN_POINT ( 'NONE',  ( -5.000000000000000000, 0.0000000000000000000, 15.00000000000000000 ) ) ;
#35 = CARTESIAN_POINT ( 'NONE',  ( 0.0000000000000000000, 0.0000000000000000000, 15.00000000000000000 ) ) ;
#36 = CALENDAR_DATE ( 2020, 2, 2 ) ;
#37 = DIRECTION ( 'NONE',  ( 1.000000000000000000, 0.0000000000000000000, -0.0000000000000000000 ) ) ;
#38 = UNCERTAINTY_MEASURE_WITH_UNIT (LENGTH_MEASURE( 1.000000000000000100E-005 ), #218, 'distance_accuracy_value', 'NONE');
#39 = CC_DESIGN_DATE_AND_TIME_ASSIGNMENT ( #185, #102, ( #87 ) ) ;
#40 = APPLICATION_CONTEXT ( 'configuration controlled 3d designs of mechanical parts and assemblies' ) ;
#41 = ADVANCED_FACE ( 'NONE', ( #51 ), #93, .T. ) ;
#42 = DIRECTION ( 'NONE',  ( -0.0000000000000000000, -0.0000000000000000000, -1.000000000000000000 ) ) ;
#43 = CALENDAR_DATE ( 2020, 2, 2 ) ;
#44 = AXIS2_PLACEMENT_3D ( 'NONE', #117, #209, #288 ) ;
#45 = ORIENTED_EDGE ( 'NONE', *, *, #297, .T. ) ;
#46 = CARTESIAN_POINT ( 'NONE',  ( 0.0000000000000000000, 0.0000000000000000000, 15.00000000000000000 ) ) ;
#47 = PERSON_AND_ORGANIZATION_ROLE ( 'design_owner' ) ;
#48 = COORDINATED_UNIVERSAL_TIME_OFFSET ( 1, 0, .AHEAD. ) ;
#49 = EDGE_LOOP ( 'NONE', ( #305, #200, #322, #253 ) ) ;
#50 = PRODUCT_RELATED_PRODUCT_CATEGORY ( 'detail', '', ( #149 ) ) ;
#51 = FACE_OUTER_BOUND ( 'NONE', #251, .T. ) ;
#52 = APPROVAL ( #320, 'UNSPECIFIED' ) ;
#53 = ORIENTED_EDGE ( 'NONE', *, *, #261, .F. ) ;
#54 = PERSON_AND_ORGANIZATION ( #175, #21 ) ;
#55 = CARTESIAN_POINT ( 'NONE',  ( -6.999999999999999100, 0.0000000000000000000, 0.0000000000000000000 ) ) ;
#56 = ORIENTED_EDGE ( 'NONE', *, *, #246, .T. ) ;
#57 = DIRECTION ( 'NONE',  ( -0.0000000000000000000, -0.0000000000000000000, -1.000000000000000000 ) ) ;
#58 = VERTEX_POINT ( 'NONE', #308 ) ;
#59 = CC_DESIGN_APPROVAL ( #227, ( #303 ) ) ;
#60 = PRODUCT_DEFINITION_SHAPE ( 'NONE', 'NONE',  #87 ) ;
#61 = CARTESIAN_POINT ( 'NONE',  ( 0.0000000000000000000, 0.0000000000000000000, 0.0000000000000000000 ) ) ;
#62 = CARTESIAN_POINT ( 'NONE',  ( 0.0000000000000000000, 0.0000000000000000000, 15.00000000000000000 ) ) ;
#63 = DIRECTION ( 'NONE',  ( 0.0000000000000000000, 0.0000000000000000000, 1.000000000000000000 ) ) ;
#64 = CIRCLE ( 'NONE', #309, 5.000000000000000000 ) ;
#65 = VERTEX_POINT ( 'NONE', #29 ) ;
#66 = CARTESIAN_POINT ( 'NONE',  ( 0.0000000000000000000, 0.0000000000000000000, 5.000000000000000000 ) ) ;
#67 = CARTESIAN_POINT ( 'NONE',  ( 6.999999999999999100, 8.572527594031472200E-016, 5.000000000000000000 ) ) ;
#68 = ORIENTED_EDGE ( 'NONE', *, *, #180, .F. ) ;
#69 =( GEOMETRIC_REPRESENTATION_CONTEXT ( 3 ) GLOBAL_UNCERTAINTY_ASSIGNED_CONTEXT ( ( #38 ) ) GLOBAL_UNIT_ASSIGNED_CONTEXT ( ( #218, #194, #193 ) ) REPRESENTATION_CONTEXT ( 'NONE', 'WORKASPACE' ) );
#70 = LOCAL_TIME ( 11, 39, 38.00000000000000000, #224 ) ;
#71 = CARTESIAN_POINT ( 'NONE',  ( 0.0000000000000000000, 0.0000000000000000000, 0.0000000000000000000 ) ) ;
#72 = FACE_OUTER_BOUND ( 'NONE', #287, .T. ) ;
#73 = DIRECTION ( 'NONE',  ( 0.0000000000000000000, 0.0000000000000000000, 1.000000000000000000 ) ) ;
#74 = ADVANCED_FACE ( 'NONE', ( #72 ), #210, .T. ) ;
#75 = AXIS2_PLACEMENT_3D ( 'NONE', #7, #316, #184 ) ;
#76 = VERTEX_POINT ( 'NONE', #139 ) ;
#77 = ADVANCED_FACE ( 'NONE', ( #174, #324 ), #329, .T. ) ;
#78 = LOCAL_TIME ( 11, 39, 38.00000000000000000, #275 ) ;
#79 = VERTEX_POINT ( 'NONE', #55 ) ;
#80 = EDGE_CURVE ( 'NONE', #315, #177, #106, .T. ) ;
#81 = PLANE ( 'NONE',  #94 ) ;
#82 = DIRECTION ( 'NONE',  ( -0.0000000000000000000, -0.0000000000000000000, -1.000000000000000000 ) ) ;
#83 = VECTOR ( 'NONE', #181, 1000.000000000000000 ) ;
#84 = VERTEX_POINT ( 'NONE', #109 ) ;
#85 = PERSON_AND_ORGANIZATION ( #175, #21 ) ;
#86 = ORIENTED_EDGE ( 'NONE', *, *, #202, .T. ) ;
#87 = PRODUCT_DEFINITION ( 'UNKNOWN', '', #147, #142 ) ;
#88 = DIRECTION ( 'NONE',  ( 1.000000000000000000, 0.0000000000000000000, 0.0000000000000000000 ) ) ;
#89 = VERTEX_POINT ( 'NONE', #230 ) ;
#90 = EDGE_LOOP ( 'NONE', ( #307, #327 ) ) ;
#91 = DIRECTION ( 'NONE',  ( 0.0000000000000000000, 0.0000000000000000000, 1.000000000000000000 ) ) ;
#92 = LOCAL_TIME ( 11, 39, 38.00000000000000000, #220 ) ;
#93 = CYLINDRICAL_SURFACE ( 'NONE', #31, 6.999999999999999100 ) ;
#94 = AXIS2_PLACEMENT_3D ( 'NONE', #25, #27, #228 ) ;
#95 = APPROVAL_ROLE ( '' ) ;
#96 = PERSON_AND_ORGANIZATION_ROLE ( 'creator' ) ;
#97 = AXIS2_PLACEMENT_3D ( 'NONE', #166, #263, #207 ) ;
#98 = APPROVAL_PERSON_ORGANIZATION ( #282, #298, #95 ) ;
#99 = CARTESIAN_POINT ( 'NONE',  ( 6.999999999999999100, 8.572527594031472200E-016, 0.0000000000000000000 ) ) ;
#100 = LINE ( 'NONE', #67, #326 ) ;
#101 = EDGE_CURVE ( 'NONE', #84, #89, #179, .T. ) ;
#102 = DATE_TIME_ROLE ( 'creation_date' ) ;
#103 = ORIENTED_EDGE ( 'NONE', *, *, #176, .F. ) ;
#104 = CC_DESIGN_PERSON_AND_ORGANIZATION_ASSIGNMENT ( #233, #295, ( #147 ) ) ;
#105 = CALENDAR_DATE ( 2020, 2, 2 ) ;
#106 = CIRCLE ( 'NONE', #170, 6.999999999999999100 ) ;
#107 = CARTESIAN_POINT ( 'NONE',  ( 0.0000000000000000000, 0.0000000000000000000, 15.00000000000000000 ) ) ;
#108 = APPROVAL_DATE_TIME ( #238, #52 ) ;
#109 = CARTESIAN_POINT ( 'NONE',  ( -3.399999999999999900, 0.0000000000000000000, 0.0000000000000000000 ) ) ;
#110 = DIRECTION ( 'NONE',  ( -0.0000000000000000000, -0.0000000000000000000, -1.000000000000000000 ) ) ;
#111 = CIRCLE ( 'NONE', #319, 3.399999999999999900 ) ;
#112 = AXIS2_PLACEMENT_3D ( 'NONE', #46, #144, #123 ) ;
#113 = DIRECTION ( 'NONE',  ( -0.0000000000000000000, -0.0000000000000000000, -1.000000000000000000 ) ) ;
#114 = EDGE_CURVE ( 'NONE', #76, #274, #32, .T. ) ;
#115 = DIRECTION ( 'NONE',  ( 0.0000000000000000000, 0.0000000000000000000, 1.000000000000000000 ) ) ;
#116 = PERSON_AND_ORGANIZATION ( #175, #21 ) ;
#117 = CARTESIAN_POINT ( 'NONE',  ( 0.0000000000000000000, 0.0000000000000000000, 15.00000000000000000 ) ) ;
#118 = DIRECTION ( 'NONE',  ( 0.0000000000000000000, 0.0000000000000000000, 1.000000000000000000 ) ) ;
#119 = MECHANICAL_CONTEXT ( 'NONE', #13, 'mechanical' ) ;
#120 = AXIS2_PLACEMENT_3D ( 'NONE', #148, #317, #17 ) ;
#121 = DIRECTION ( 'NONE',  ( -0.0000000000000000000, -0.0000000000000000000, -1.000000000000000000 ) ) ;
#122 = VECTOR ( 'NONE', #82, 1000.000000000000000 ) ;
#123 = DIRECTION ( 'NONE',  ( -1.000000000000000000, 0.0000000000000000000, 0.0000000000000000000 ) ) ;
#124 = ADVANCED_FACE ( 'NONE', ( #6 ), #164, .T. ) ;
#125 = APPROVAL_STATUS ( 'not_yet_approved' ) ;
#126 = CIRCLE ( 'NONE', #120, 5.000000000000000000 ) ;
#127 = EDGE_CURVE ( 'NONE', #266, #65, #111, .T. ) ;
#128 = PERSON_AND_ORGANIZATION ( #175, #21 ) ;
#129 = AXIS2_PLACEMENT_3D ( 'NONE', #61, #235, #88 ) ;
#130 = ORIENTED_EDGE ( 'NONE', *, *, #156, .F. ) ;
#131 = CARTESIAN_POINT ( 'NONE',  ( 3.399999999999999900, 4.163799117101000600E-016, 15.00000000000000000 ) ) ;
#132 = EDGE_CURVE ( 'NONE', #65, #266, #276, .T. ) ;
#133 = CYLINDRICAL_SURFACE ( 'NONE', #97, 3.399999999999999900 ) ;
#134 = DIRECTION ( 'NONE',  ( -0.0000000000000000000, -0.0000000000000000000, -1.000000000000000000 ) ) ;
#135 = DIRECTION ( 'NONE',  ( -1.000000000000000000, 0.0000000000000000000, 0.0000000000000000000 ) ) ;
#136 = EDGE_CURVE ( 'NONE', #274, #58, #242, .T. ) ;
#137 = LINE ( 'NONE', #131, #122 ) ;
#138 = ORIENTED_EDGE ( 'NONE', *, *, #225, .F. ) ;
#139 = CARTESIAN_POINT ( 'NONE',  ( 5.000000000000000000, 6.123233995736766300E-016, 15.00000000000000000 ) ) ;
#140 = CLOSED_SHELL ( 'NONE', ( #267, #74, #124, #41, #223, #20, #146, #77, #239 ) ) ;
#141 = DIRECTION ( 'NONE',  ( 0.0000000000000000000, 0.0000000000000000000, 1.000000000000000000 ) ) ;
#142 = DESIGN_CONTEXT ( 'detailed design', #40, 'design' ) ;
#143 = COORDINATED_UNIVERSAL_TIME_OFFSET ( 1, 0, .AHEAD. ) ;
#144 = DIRECTION ( 'NONE',  ( -0.0000000000000000000, -0.0000000000000000000, -1.000000000000000000 ) ) ;
#145 = EDGE_LOOP ( 'NONE', ( #19, #249 ) ) ;
#146 = ADVANCED_FACE ( 'NONE', ( #190 ), #155, .T. ) ;
#147 = PRODUCT_DEFINITION_FORMATION_WITH_SPECIFIED_SOURCE ( 'ANY', '', #149, .NOT_KNOWN. ) ;
#148 = CARTESIAN_POINT ( 'NONE',  ( 0.0000000000000000000, 0.0000000000000000000, 5.000000000000000000 ) ) ;
#149 = PRODUCT ( 'ManchonV3 14mm', 'ManchonV3 14mm', '', ( #119 ) ) ;
#150 = ORIENTED_EDGE ( 'NONE', *, *, #101, .T. ) ;
#151 = ORIENTED_EDGE ( 'NONE', *, *, #132, .F. ) ;
#152 = EDGE_LOOP ( 'NONE', ( #199, #138, #12, #45 ) ) ;
#153 = CC_DESIGN_PERSON_AND_ORGANIZATION_ASSIGNMENT ( #128, #96, ( #147 ) ) ;
#154 = APPROVAL_DATE_TIME ( #158, #298 ) ;
#155 = CYLINDRICAL_SURFACE ( 'NONE', #44, 5.000000000000000000 ) ;
#156 = EDGE_CURVE ( 'NONE', #76, #247, #64, .T. ) ;
#157 = FACE_OUTER_BOUND ( 'NONE', #277, .T. ) ;
#158 = DATE_AND_TIME ( #43, #70 ) ;
#159 = CARTESIAN_POINT ( 'NONE',  ( 5.000000000000000000, 6.123233995736766300E-016, 15.00000000000000000 ) ) ;
#160 = LINE ( 'NONE', #236, #293 ) ;
#161 = CARTESIAN_POINT ( 'NONE',  ( 0.0000000000000000000, 0.0000000000000000000, 5.000000000000000000 ) ) ;
#162 = DIRECTION ( 'NONE',  ( 0.0000000000000000000, 0.0000000000000000000, 1.000000000000000000 ) ) ;
#163 = CC_DESIGN_APPROVAL ( #52, ( #147 ) ) ;
#164 = CYLINDRICAL_SURFACE ( 'NONE', #323, 6.999999999999999100 ) ;
#165 = DIRECTION ( 'NONE',  ( 1.000000000000000000, 0.0000000000000000000, 0.0000000000000000000 ) ) ;
#166 = CARTESIAN_POINT ( 'NONE',  ( 0.0000000000000000000, 0.0000000000000000000, 15.00000000000000000 ) ) ;
#167 = APPROVAL_DATE_TIME ( #306, #227 ) ;
#168 = CARTESIAN_POINT ( 'NONE',  ( 0.0000000000000000000, 0.0000000000000000000, 15.00000000000000000 ) ) ;
#169 = DIRECTION ( 'NONE',  ( 1.000000000000000000, 0.0000000000000000000, 0.0000000000000000000 ) ) ;
#170 = AXIS2_PLACEMENT_3D ( 'NONE', #161, #162, #284 ) ;
#171 = DIRECTION ( 'NONE',  ( 0.0000000000000000000, 0.0000000000000000000, 1.000000000000000000 ) ) ;
#172 = PERSON_AND_ORGANIZATION ( #175, #21 ) ;
#173 = SECURITY_CLASSIFICATION_LEVEL ( 'unclassified' ) ;
#174 = FACE_BOUND ( 'NONE', #8, .T. ) ;
#175 = PERSON ( 'UNSPECIFIED', 'UNSPECIFIED', 'UNSPECIFIED', ('UNSPECIFIED'), ('UNSPECIFIED'), ('UNSPECIFIED') ) ;
#176 = EDGE_CURVE ( 'NONE', #315, #318, #100, .T. ) ;
#177 = VERTEX_POINT ( 'NONE', #289 ) ;
#178 = LOCAL_TIME ( 11, 39, 38.00000000000000000, #48 ) ;
#179 = CIRCLE ( 'NONE', #325, 3.399999999999999900 ) ;
#180 = EDGE_CURVE ( 'NONE', #247, #58, #160, .T. ) ;
#181 = DIRECTION ( 'NONE',  ( -0.0000000000000000000, -0.0000000000000000000, -1.000000000000000000 ) ) ;
#182 = AXIS2_PLACEMENT_3D ( 'NONE', #35, #311, #187 ) ;
#183 = FACE_BOUND ( 'NONE', #197, .T. ) ;
#184 = DIRECTION ( 'NONE',  ( -1.000000000000000000, 0.0000000000000000000, 0.0000000000000000000 ) ) ;
#185 = DATE_AND_TIME ( #203, #92 ) ;
#186 = DIRECTION ( 'NONE',  ( -0.0000000000000000000, -0.0000000000000000000, -1.000000000000000000 ) ) ;
#187 = DIRECTION ( 'NONE',  ( -1.000000000000000000, 0.0000000000000000000, 0.0000000000000000000 ) ) ;
#188 = DIRECTION ( 'NONE',  ( 0.0000000000000000000, 0.0000000000000000000, -1.000000000000000000 ) ) ;
#189 = CARTESIAN_POINT ( 'NONE',  ( -3.399999999999999900, 0.0000000000000000000, 15.00000000000000000 ) ) ;
#190 = FACE_OUTER_BOUND ( 'NONE', #152, .T. ) ;
#191 = CC_DESIGN_PERSON_AND_ORGANIZATION_ASSIGNMENT ( #85, #272, ( #303 ) ) ;
#192 = CARTESIAN_POINT ( 'NONE',  ( 5.000000000000000000, 6.123233995736766300E-016, 5.000000000000000000 ) ) ;
#193 =( NAMED_UNIT ( * ) SI_UNIT ( $, .STERADIAN. ) SOLID_ANGLE_UNIT ( ) );
#194 =( NAMED_UNIT ( * ) PLANE_ANGLE_UNIT ( ) SI_UNIT ( $, .RADIAN. ) );
#195 = FACE_OUTER_BOUND ( 'NONE', #300, .T. ) ;
#196 = PERSON_AND_ORGANIZATION ( #175, #21 ) ;
#197 = EDGE_LOOP ( 'NONE', ( #208, #254 ) ) ;
#198 = AXIS2_PLACEMENT_3D ( 'NONE', #211, #141, #37 ) ;
#199 = ORIENTED_EDGE ( 'NONE', *, *, #114, .F. ) ;
#200 = ORIENTED_EDGE ( 'NONE', *, *, #176, .T. ) ;
#201 = DIRECTION ( 'NONE',  ( 1.000000000000000000, 0.0000000000000000000, -0.0000000000000000000 ) ) ;
#202 = EDGE_CURVE ( 'NONE', #89, #84, #204, .T. ) ;
#203 = CALENDAR_DATE ( 2020, 2, 2 ) ;
#204 = CIRCLE ( 'NONE', #75, 3.399999999999999900 ) ;
#205 = DIRECTION ( 'NONE',  ( -1.000000000000000000, 0.0000000000000000000, 0.0000000000000000000 ) ) ;
#206 = CC_DESIGN_DATE_AND_TIME_ASSIGNMENT ( #296, #292, ( #303 ) ) ;
#207 = DIRECTION ( 'NONE',  ( -1.000000000000000000, 0.0000000000000000000, 0.0000000000000000000 ) ) ;
#208 = ORIENTED_EDGE ( 'NONE', *, *, #101, .F. ) ;
#209 = DIRECTION ( 'NONE',  ( -0.0000000000000000000, -0.0000000000000000000, -1.000000000000000000 ) ) ;
#210 = CYLINDRICAL_SURFACE ( 'NONE', #15, 5.000000000000000000 ) ;
#211 = CARTESIAN_POINT ( 'NONE',  ( 0.0000000000000000000, 0.0000000000000000000, 5.000000000000000000 ) ) ;
#212 = EDGE_CURVE ( 'NONE', #177, #315, #229, .T. ) ;
#213 = ORIENTED_EDGE ( 'NONE', *, *, #212, .F. ) ;
#214 = CALENDAR_DATE ( 2020, 2, 2 ) ;
#215 = FACE_OUTER_BOUND ( 'NONE', #278, .T. ) ;
#216 = ORIENTED_EDGE ( 'NONE', *, *, #80, .T. ) ;
#217 = AXIS2_PLACEMENT_3D ( 'NONE', #66, #63, #310 ) ;
#218 =( LENGTH_UNIT ( ) NAMED_UNIT ( * ) SI_UNIT ( .MILLI., .METRE. ) );
#219 = ADVANCED_BREP_SHAPE_REPRESENTATION ( 'ManchonV3 14mm', ( #237, #257 ), #69 ) ;
#220 = COORDINATED_UNIVERSAL_TIME_OFFSET ( 1, 0, .AHEAD. ) ;
#221 = CIRCLE ( 'NONE', #129, 6.999999999999999100 ) ;
#222 = CARTESIAN_POINT ( 'NONE',  ( 0.0000000000000000000, 0.0000000000000000000, 0.0000000000000000000 ) ) ;
#223 = ADVANCED_FACE ( 'NONE', ( #273, #226 ), #262, .T. ) ;
#224 = COORDINATED_UNIVERSAL_TIME_OFFSET ( 1, 0, .AHEAD. ) ;
#225 = EDGE_CURVE ( 'NONE', #247, #76, #18, .T. ) ;
#226 = FACE_OUTER_BOUND ( 'NONE', #283, .T. ) ;
#227 = APPROVAL ( #125, 'UNSPECIFIED' ) ;
#228 = DIRECTION ( 'NONE',  ( 1.000000000000000000, 0.0000000000000000000, -0.0000000000000000000 ) ) ;
#229 = CIRCLE ( 'NONE', #269, 6.999999999999999100 ) ;
#230 = CARTESIAN_POINT ( 'NONE',  ( 3.399999999999999900, 4.163799117101000600E-016, 0.0000000000000000000 ) ) ;
#231 = EDGE_CURVE ( 'NONE', #318, #79, #221, .T. ) ;
#232 = AXIS2_PLACEMENT_3D ( 'NONE', #304, #301, #201 ) ;
#233 = PERSON_AND_ORGANIZATION ( #175, #21 ) ;
#234 = ORIENTED_EDGE ( 'NONE', *, *, #132, .T. ) ;
#235 = DIRECTION ( 'NONE',  ( 0.0000000000000000000, 0.0000000000000000000, 1.000000000000000000 ) ) ;
#236 = CARTESIAN_POINT ( 'NONE',  ( -5.000000000000000000, 0.0000000000000000000, 15.00000000000000000 ) ) ;
#237 = MANIFOLD_SOLID_BREP ( 'Enlèv. mat.-Extru.2', #140 ) ;
#238 = DATE_AND_TIME ( #214, #30 ) ;
#239 = ADVANCED_FACE ( 'NONE', ( #157 ), #133, .F. ) ;
#240 = CC_DESIGN_SECURITY_CLASSIFICATION ( #303, ( #147 ) ) ;
#241 = APPLICATION_PROTOCOL_DEFINITION ( 'international standard', 'config_control_design', 1994, #13 ) ;
#242 = CIRCLE ( 'NONE', #217, 5.000000000000000000 ) ;
#243 = CARTESIAN_POINT ( 'NONE',  ( -3.399999999999999900, 0.0000000000000000000, 15.00000000000000000 ) ) ;
#244 = APPROVAL_STATUS ( 'not_yet_approved' ) ;
#245 = ORIENTED_EDGE ( 'NONE', *, *, #136, .T. ) ;
#246 = EDGE_CURVE ( 'NONE', #79, #318, #259, .T. ) ;
#247 = VERTEX_POINT ( 'NONE', #34 ) ;
#248 = CYLINDRICAL_SURFACE ( 'NONE', #112, 3.399999999999999900 ) ;
#249 = ORIENTED_EDGE ( 'NONE', *, *, #136, .F. ) ;
#250 = CARTESIAN_POINT ( 'NONE',  ( 0.0000000000000000000, 0.0000000000000000000, 5.000000000000000000 ) ) ;
#251 = EDGE_LOOP ( 'NONE', ( #103, #213, #252, #56 ) ) ;
#252 = ORIENTED_EDGE ( 'NONE', *, *, #279, .T. ) ;
#253 = ORIENTED_EDGE ( 'NONE', *, *, #279, .F. ) ;
#254 = ORIENTED_EDGE ( 'NONE', *, *, #202, .F. ) ;
#255 = SHAPE_DEFINITION_REPRESENTATION ( #60, #219 ) ;
#256 = VECTOR ( 'NONE', #121, 1000.000000000000000 ) ;
#257 = AXIS2_PLACEMENT_3D ( 'NONE', #222, #73, #270 ) ;
#258 = CARTESIAN_POINT ( 'NONE',  ( 0.0000000000000000000, 0.0000000000000000000, 15.00000000000000000 ) ) ;
#259 = CIRCLE ( 'NONE', #24, 6.999999999999999100 ) ;
#260 = ORIENTED_EDGE ( 'NONE', *, *, #261, .T. ) ;
#261 = EDGE_CURVE ( 'NONE', #266, #84, #22, .T. ) ;
#262 = PLANE ( 'NONE',  #198 ) ;
#263 = DIRECTION ( 'NONE',  ( -0.0000000000000000000, -0.0000000000000000000, -1.000000000000000000 ) ) ;
#264 = PERSON_AND_ORGANIZATION_ROLE ( 'creator' ) ;
#265 = LINE ( 'NONE', #14, #286 ) ;
#266 = VERTEX_POINT ( 'NONE', #243 ) ;
#267 = ADVANCED_FACE ( 'NONE', ( #195 ), #248, .F. ) ;
#268 = APPROVAL_ROLE ( '' ) ;
#269 = AXIS2_PLACEMENT_3D ( 'NONE', #314, #115, #5 ) ;
#270 = DIRECTION ( 'NONE',  ( 1.000000000000000000, 0.0000000000000000000, 0.0000000000000000000 ) ) ;
#271 = APPLICATION_PROTOCOL_DEFINITION ( 'international standard', 'config_control_design', 1994, #40 ) ;
#272 = PERSON_AND_ORGANIZATION_ROLE ( 'classification_officer' ) ;
#273 = FACE_BOUND ( 'NONE', #145, .T. ) ;
#274 = VERTEX_POINT ( 'NONE', #192 ) ;
#275 = COORDINATED_UNIVERSAL_TIME_OFFSET ( 1, 0, .AHEAD. ) ;
#276 = CIRCLE ( 'NONE', #182, 3.399999999999999900 ) ;
#277 = EDGE_LOOP ( 'NONE', ( #9, #321, #260, #150 ) ) ;
#278 = EDGE_LOOP ( 'NONE', ( #328, #2 ) ) ;
#279 = EDGE_CURVE ( 'NONE', #177, #79, #265, .T. ) ;
#280 = ORIENTED_EDGE ( 'NONE', *, *, #127, .T. ) ;
#281 = CARTESIAN_POINT ( 'NONE',  ( 0.0000000000000000000, 0.0000000000000000000, 5.000000000000000000 ) ) ;
#282 = PERSON_AND_ORGANIZATION ( #175, #21 ) ;
#283 = EDGE_LOOP ( 'NONE', ( #26, #216 ) ) ;
#284 = DIRECTION ( 'NONE',  ( 1.000000000000000000, 0.0000000000000000000, 0.0000000000000000000 ) ) ;
#285 = DIRECTION ( 'NONE',  ( -1.000000000000000000, 0.0000000000000000000, 0.0000000000000000000 ) ) ;
#286 = VECTOR ( 'NONE', #42, 1000.000000000000000 ) ;
#287 = EDGE_LOOP ( 'NONE', ( #130, #16, #245, #68 ) ) ;
#288 = DIRECTION ( 'NONE',  ( -1.000000000000000000, 0.0000000000000000000, 0.0000000000000000000 ) ) ;
#289 = CARTESIAN_POINT ( 'NONE',  ( -6.999999999999999100, 0.0000000000000000000, 5.000000000000000000 ) ) ;
#290 = DIRECTION ( 'NONE',  ( 1.000000000000000000, 0.0000000000000000000, 0.0000000000000000000 ) ) ;
#291 = APPROVAL_ROLE ( '' ) ;
#292 = DATE_TIME_ROLE ( 'classification_date' ) ;
#293 = VECTOR ( 'NONE', #186, 1000.000000000000000 ) ;
#294 = CARTESIAN_POINT ( 'NONE',  ( 6.999999999999999100, 8.572527594031472200E-016, 5.000000000000000000 ) ) ;
#295 = PERSON_AND_ORGANIZATION_ROLE ( 'design_supplier' ) ;
#296 = DATE_AND_TIME ( #36, #178 ) ;
#297 = EDGE_CURVE ( 'NONE', #58, #274, #126, .T. ) ;
#298 = APPROVAL ( #244, 'UNSPECIFIED' ) ;
#299 = APPROVAL_PERSON_ORGANIZATION ( #54, #52, #268 ) ;
#300 = EDGE_LOOP ( 'NONE', ( #151, #312, #86, #53 ) ) ;
#301 = DIRECTION ( 'NONE',  ( 0.0000000000000000000, 0.0000000000000000000, 1.000000000000000000 ) ) ;
#302 = DIRECTION ( 'NONE',  ( 0.0000000000000000000, 0.0000000000000000000, -1.000000000000000000 ) ) ;
#303 = SECURITY_CLASSIFICATION ( '', '', #173 ) ;
#304 = CARTESIAN_POINT ( 'NONE',  ( 0.0000000000000000000, 0.0000000000000000000, 15.00000000000000000 ) ) ;
#305 = ORIENTED_EDGE ( 'NONE', *, *, #80, .F. ) ;
#306 = DATE_AND_TIME ( #105, #78 ) ;
#307 = ORIENTED_EDGE ( 'NONE', *, *, #225, .T. ) ;
#308 = CARTESIAN_POINT ( 'NONE',  ( -5.000000000000000000, 0.0000000000000000000, 5.000000000000000000 ) ) ;
#309 = AXIS2_PLACEMENT_3D ( 'NONE', #258, #91, #165 ) ;
#310 = DIRECTION ( 'NONE',  ( 1.000000000000000000, 0.0000000000000000000, 0.0000000000000000000 ) ) ;
#311 = DIRECTION ( 'NONE',  ( 0.0000000000000000000, 0.0000000000000000000, -1.000000000000000000 ) ) ;
#312 = ORIENTED_EDGE ( 'NONE', *, *, #28, .T. ) ;
#313 = DIRECTION ( 'NONE',  ( -1.000000000000000000, 0.0000000000000000000, 0.0000000000000000000 ) ) ;
#314 = CARTESIAN_POINT ( 'NONE',  ( 0.0000000000000000000, 0.0000000000000000000, 5.000000000000000000 ) ) ;
#315 = VERTEX_POINT ( 'NONE', #294 ) ;
#316 = DIRECTION ( 'NONE',  ( 0.0000000000000000000, 0.0000000000000000000, -1.000000000000000000 ) ) ;
#317 = DIRECTION ( 'NONE',  ( 0.0000000000000000000, 0.0000000000000000000, 1.000000000000000000 ) ) ;
#318 = VERTEX_POINT ( 'NONE', #99 ) ;
#319 = AXIS2_PLACEMENT_3D ( 'NONE', #62, #188, #33 ) ;
#320 = APPROVAL_STATUS ( 'not_yet_approved' ) ;
#321 = ORIENTED_EDGE ( 'NONE', *, *, #127, .F. ) ;
#322 = ORIENTED_EDGE ( 'NONE', *, *, #231, .T. ) ;
#323 = AXIS2_PLACEMENT_3D ( 'NONE', #281, #134, #313 ) ;
#324 = FACE_OUTER_BOUND ( 'NONE', #90, .T. ) ;
#325 = AXIS2_PLACEMENT_3D ( 'NONE', #3, #302, #205 ) ;
#326 = VECTOR ( 'NONE', #113, 1000.000000000000000 ) ;
#327 = ORIENTED_EDGE ( 'NONE', *, *, #156, .T. ) ;
#328 = ORIENTED_EDGE ( 'NONE', *, *, #246, .F. ) ;
#329 = PLANE ( 'NONE',  #232 ) ;
ENDSEC;
END-ISO-10303-21;
