ISO-10303-21;
HEADER;
FILE_DESCRIPTION((''),'2;1');
FILE_NAME('ADAPTATEUR_1','2022-01-11T',('A0H34082'),(''),
'CREO PARAMETRIC BY PTC INC, 2018220','CREO PARAMETRIC BY PTC INC, 2018220','');
FILE_SCHEMA(('CONFIG_CONTROL_DESIGN'));
ENDSEC;
DATA;
#1=CARTESIAN_POINT('',(0.E0,0.E0,-8.285049760857E-14));
#2=DIRECTION('',(-1.E0,0.E0,0.E0));
#3=DIRECTION('',(0.E0,1.E0,0.E0));
#4=AXIS2_PLACEMENT_3D('',#1,#2,#3);
#6=CARTESIAN_POINT('',(0.E0,0.E0,0.E0));
#7=DIRECTION('',(-1.E0,0.E0,0.E0));
#8=DIRECTION('',(0.E0,-1.E0,0.E0));
#9=AXIS2_PLACEMENT_3D('',#6,#7,#8);
#11=CARTESIAN_POINT('',(0.E0,0.E0,5.593902287453E-14));
#12=DIRECTION('',(-1.E0,0.E0,0.E0));
#13=DIRECTION('',(0.E0,1.E0,0.E0));
#14=AXIS2_PLACEMENT_3D('',#11,#12,#13);
#16=CARTESIAN_POINT('',(0.E0,0.E0,0.E0));
#17=DIRECTION('',(-1.E0,0.E0,0.E0));
#18=DIRECTION('',(0.E0,-1.E0,0.E0));
#19=AXIS2_PLACEMENT_3D('',#16,#17,#18);
#21=DIRECTION('',(7.071067811866E-1,7.071067811865E-1,1.619433608261E-9));
#22=VECTOR('',#21,2.828427124901E-1);
#23=CARTESIAN_POINT('',(-4.598099678788E-11,1.279999999995E1,
-1.922285831652E-9));
#24=LINE('',#23,#22);
#25=DIRECTION('',(7.071067811865E-1,-7.071067811865E-1,-1.619431330808E-9));
#26=VECTOR('',#25,2.828427124901E-1);
#27=CARTESIAN_POINT('',(-4.598099678788E-11,-1.279999999995E1,
1.922284174361E-9));
#28=LINE('',#27,#26);
#29=CARTESIAN_POINT('',(8.8E0,0.E0,0.E0));
#30=DIRECTION('',(-1.E0,0.E0,0.E0));
#31=DIRECTION('',(0.E0,-1.E0,0.E0));
#32=AXIS2_PLACEMENT_3D('',#29,#30,#31);
#34=DIRECTION('',(-1.E0,1.247993956230E-12,2.091488975509E-10));
#35=VECTOR('',#34,8.600000000059E0);
#36=CARTESIAN_POINT('',(8.800000000024E0,-1.299999999998E1,
-3.344406948868E-10));
#37=LINE('',#36,#35);
#38=CARTESIAN_POINT('',(2.E-1,0.E0,0.E0));
#39=DIRECTION('',(-1.E0,0.E0,0.E0));
#40=DIRECTION('',(0.E0,-1.E0,0.E0));
#41=AXIS2_PLACEMENT_3D('',#38,#39,#40);
#43=DIRECTION('',(-1.E0,-1.247993956230E-12,-2.091489814631E-10));
#44=VECTOR('',#43,8.600000000059E0);
#45=CARTESIAN_POINT('',(8.800000000024E0,1.299999999998E1,3.344404034011E-10));
#46=LINE('',#45,#44);
#47=DIRECTION('',(7.071067811866E-1,7.071067811865E-1,-3.698935917501E-10));
#48=VECTOR('',#47,2.828427124854E-1);
#49=CARTESIAN_POINT('',(8.800000000024E0,-1.299999999998E1,
-3.344406948868E-10));
#50=LINE('',#49,#48);
#51=DIRECTION('',(7.071067811866E-1,-7.071067811865E-1,3.698820638364E-10));
#52=VECTOR('',#51,2.828427124854E-1);
#53=CARTESIAN_POINT('',(8.800000000024E0,1.299999999998E1,3.344404034011E-10));
#54=LINE('',#53,#52);
#55=CARTESIAN_POINT('',(8.8E0,0.E0,0.E0));
#56=DIRECTION('',(-1.E0,0.E0,0.E0));
#57=DIRECTION('',(0.E0,1.E0,0.E0));
#58=AXIS2_PLACEMENT_3D('',#55,#56,#57);
#60=CARTESIAN_POINT('',(1.999999999999E-1,0.E0,0.E0));
#61=DIRECTION('',(-1.E0,0.E0,0.E0));
#62=DIRECTION('',(0.E0,1.E0,0.E0));
#63=AXIS2_PLACEMENT_3D('',#60,#61,#62);
#65=CARTESIAN_POINT('',(9.E0,0.E0,0.E0));
#66=DIRECTION('',(-1.E0,0.E0,0.E0));
#67=DIRECTION('',(0.E0,1.E0,0.E0));
#68=AXIS2_PLACEMENT_3D('',#65,#66,#67);
#70=CARTESIAN_POINT('',(9.E0,0.E0,0.E0));
#71=DIRECTION('',(1.E0,0.E0,0.E0));
#72=DIRECTION('',(0.E0,1.E0,0.E0));
#73=AXIS2_PLACEMENT_3D('',#70,#71,#72);
#75=CARTESIAN_POINT('',(9.E0,0.E0,-8.285049760857E-14));
#76=DIRECTION('',(-1.E0,0.E0,0.E0));
#77=DIRECTION('',(0.E0,1.E0,0.E0));
#78=AXIS2_PLACEMENT_3D('',#75,#76,#77);
#80=CARTESIAN_POINT('',(9.E0,0.E0,0.E0));
#81=DIRECTION('',(-1.E0,0.E0,0.E0));
#82=DIRECTION('',(0.E0,-1.E0,0.E0));
#83=AXIS2_PLACEMENT_3D('',#80,#81,#82);
#85=CARTESIAN_POINT('',(1.08E1,0.E0,0.E0));
#86=DIRECTION('',(-1.E0,0.E0,0.E0));
#87=DIRECTION('',(0.E0,1.E0,0.E0));
#88=AXIS2_PLACEMENT_3D('',#85,#86,#87);
#90=DIRECTION('',(7.071067811866E-1,-7.071067811865E-1,4.083949422509E-10));
#91=VECTOR('',#90,2.828427124916E-1);
#92=CARTESIAN_POINT('',(1.080000000004E1,9.999999999961E0,3.766667386395E-10));
#93=LINE('',#92,#91);
#94=DIRECTION('',(7.071067811865E-1,7.071067811865E-1,-4.084000109477E-10));
#95=VECTOR('',#94,2.828427124916E-1);
#96=CARTESIAN_POINT('',(1.080000000004E1,-9.999999999961E0,
-3.766705965952E-10));
#97=LINE('',#96,#95);
#98=CARTESIAN_POINT('',(1.08E1,0.E0,0.E0));
#99=DIRECTION('',(-1.E0,0.E0,0.E0));
#100=DIRECTION('',(0.E0,-1.E0,0.E0));
#101=AXIS2_PLACEMENT_3D('',#98,#99,#100);
#103=DIRECTION('',(-1.E0,-2.171300176646E-11,2.092606201609E-10));
#104=VECTOR('',#103,1.800000000039E0);
#105=CARTESIAN_POINT('',(1.080000000004E1,-9.999999999961E0,
-3.766705965952E-10));
#106=LINE('',#105,#104);
#107=DIRECTION('',(-1.E0,2.171300176646E-11,-2.092592992396E-10));
#108=VECTOR('',#107,1.800000000039E0);
#109=CARTESIAN_POINT('',(1.080000000004E1,9.999999999961E0,3.766667386395E-10));
#110=LINE('',#109,#108);
#111=CARTESIAN_POINT('',(1.1E1,0.E0,0.E0));
#112=DIRECTION('',(-1.E0,0.E0,0.E0));
#113=DIRECTION('',(0.E0,1.E0,0.E0));
#114=AXIS2_PLACEMENT_3D('',#111,#112,#113);
#116=CARTESIAN_POINT('',(1.1E1,0.E0,0.E0));
#117=DIRECTION('',(1.E0,0.E0,0.E0));
#118=DIRECTION('',(0.E0,1.E0,0.E0));
#119=AXIS2_PLACEMENT_3D('',#116,#117,#118);
#121=CARTESIAN_POINT('',(1.1E1,0.E0,-4.879416325505E-14));
#122=DIRECTION('',(-1.E0,0.E0,0.E0));
#123=DIRECTION('',(0.E0,1.E0,0.E0));
#124=AXIS2_PLACEMENT_3D('',#121,#122,#123);
#126=CARTESIAN_POINT('',(1.1E1,0.E0,0.E0));
#127=DIRECTION('',(-1.E0,0.E0,0.E0));
#128=DIRECTION('',(0.E0,-1.E0,0.E0));
#129=AXIS2_PLACEMENT_3D('',#126,#127,#128);
#131=CARTESIAN_POINT('',(6.E0,0.E0,0.E0));
#132=DIRECTION('',(-1.E0,0.E0,0.E0));
#133=DIRECTION('',(0.E0,1.E0,0.E0));
#134=AXIS2_PLACEMENT_3D('',#131,#132,#133);
#136=DIRECTION('',(1.E0,0.E0,0.E0));
#137=VECTOR('',#136,5.E0);
#138=CARTESIAN_POINT('',(6.E0,7.5E0,0.E0));
#139=LINE('',#138,#137);
#140=CARTESIAN_POINT('',(6.E0,0.E0,0.E0));
#141=DIRECTION('',(1.E0,0.E0,0.E0));
#142=DIRECTION('',(0.E0,1.E0,0.E0));
#143=AXIS2_PLACEMENT_3D('',#140,#141,#142);
#145=DIRECTION('',(1.E0,0.E0,0.E0));
#146=VECTOR('',#145,5.E0);
#147=CARTESIAN_POINT('',(6.E0,-7.5E0,0.E0));
#148=LINE('',#147,#146);
#149=CARTESIAN_POINT('',(6.E0,0.E0,0.E0));
#150=DIRECTION('',(-1.E0,0.E0,0.E0));
#151=DIRECTION('',(0.E0,1.E0,0.E0));
#152=AXIS2_PLACEMENT_3D('',#149,#150,#151);
#154=CARTESIAN_POINT('',(6.E0,0.E0,0.E0));
#155=DIRECTION('',(1.E0,0.E0,0.E0));
#156=DIRECTION('',(0.E0,1.E0,0.E0));
#157=AXIS2_PLACEMENT_3D('',#154,#155,#156);
#159=CARTESIAN_POINT('',(2.E-1,0.E0,0.E0));
#160=DIRECTION('',(-1.E0,0.E0,0.E0));
#161=DIRECTION('',(0.E0,1.E0,0.E0));
#162=AXIS2_PLACEMENT_3D('',#159,#160,#161);
#164=DIRECTION('',(-7.071067811866E-1,7.071067811865E-1,7.143653441132E-10));
#165=VECTOR('',#164,2.828427124471E-1);
#166=CARTESIAN_POINT('',(2.000000000543E-1,1.049999999995E1,
5.632439590016E-10));
#167=LINE('',#166,#165);
#168=DIRECTION('',(-7.071067811866E-1,-7.071067811865E-1,-7.143711822737E-10));
#169=VECTOR('',#168,2.828427124471E-1);
#170=CARTESIAN_POINT('',(2.000000000543E-1,-1.049999999995E1,
-5.632433842433E-10));
#171=LINE('',#170,#169);
#172=CARTESIAN_POINT('',(2.E-1,0.E0,0.E0));
#173=DIRECTION('',(-1.E0,0.E0,0.E0));
#174=DIRECTION('',(0.E0,-1.E0,0.E0));
#175=AXIS2_PLACEMENT_3D('',#172,#173,#174);
#177=DIRECTION('',(1.E0,-9.368138448980E-12,9.711066033385E-11));
#178=VECTOR('',#177,5.799999999946E0);
#179=CARTESIAN_POINT('',(2.000000000543E-1,-1.049999999995E1,
-5.632433842433E-10));
#180=LINE('',#179,#178);
#181=DIRECTION('',(1.E0,9.368138448980E-12,-9.711102741498E-11));
#182=VECTOR('',#181,5.799999999946E0);
#183=CARTESIAN_POINT('',(2.000000000543E-1,1.049999999995E1,
5.632439590016E-10));
#184=LINE('',#183,#182);
#185=CARTESIAN_POINT('',(6.E0,7.5E0,0.E0));
#186=CARTESIAN_POINT('',(1.1E1,7.5E0,0.E0));
#187=VERTEX_POINT('',#185);
#188=VERTEX_POINT('',#186);
#189=CARTESIAN_POINT('',(6.E0,-7.5E0,0.E0));
#190=CARTESIAN_POINT('',(1.1E1,-7.5E0,0.E0));
#191=VERTEX_POINT('',#189);
#192=VERTEX_POINT('',#190);
#193=CARTESIAN_POINT('',(6.E0,1.05E1,0.E0));
#194=CARTESIAN_POINT('',(6.E0,-1.05E1,0.E0));
#195=VERTEX_POINT('',#193);
#196=VERTEX_POINT('',#194);
#197=CARTESIAN_POINT('',(9.E0,1.E1,0.E0));
#198=CARTESIAN_POINT('',(9.E0,-1.E1,0.E0));
#199=VERTEX_POINT('',#197);
#200=VERTEX_POINT('',#198);
#201=CARTESIAN_POINT('',(1.08E1,1.E1,0.E0));
#202=CARTESIAN_POINT('',(1.08E1,-1.E1,0.E0));
#203=VERTEX_POINT('',#201);
#204=VERTEX_POINT('',#202);
#205=CARTESIAN_POINT('',(1.1E1,9.8E0,0.E0));
#206=CARTESIAN_POINT('',(1.1E1,-9.8E0,0.E0));
#207=VERTEX_POINT('',#205);
#208=VERTEX_POINT('',#206);
#209=CARTESIAN_POINT('',(8.8E0,1.3E1,0.E0));
#210=CARTESIAN_POINT('',(8.8E0,-1.3E1,0.E0));
#211=VERTEX_POINT('',#209);
#212=VERTEX_POINT('',#210);
#213=CARTESIAN_POINT('',(9.E0,1.28E1,0.E0));
#214=CARTESIAN_POINT('',(9.E0,-1.28E1,0.E0));
#215=VERTEX_POINT('',#213);
#216=VERTEX_POINT('',#214);
#217=CARTESIAN_POINT('',(0.E0,1.28E1,0.E0));
#218=CARTESIAN_POINT('',(0.E0,-1.28E1,0.E0));
#219=VERTEX_POINT('',#217);
#220=VERTEX_POINT('',#218);
#221=CARTESIAN_POINT('',(1.999999999999E-1,1.3E1,0.E0));
#222=CARTESIAN_POINT('',(1.999999999999E-1,-1.3E1,0.E0));
#223=VERTEX_POINT('',#221);
#224=VERTEX_POINT('',#222);
#225=CARTESIAN_POINT('',(2.E-1,1.05E1,0.E0));
#226=CARTESIAN_POINT('',(2.E-1,-1.05E1,0.E0));
#227=VERTEX_POINT('',#225);
#228=VERTEX_POINT('',#226);
#229=CARTESIAN_POINT('',(0.E0,1.07E1,0.E0));
#230=CARTESIAN_POINT('',(0.E0,-1.07E1,0.E0));
#231=VERTEX_POINT('',#229);
#232=VERTEX_POINT('',#230);
#233=CARTESIAN_POINT('',(0.E0,0.E0,0.E0));
#234=DIRECTION('',(-1.E0,0.E0,0.E0));
#235=DIRECTION('',(0.E0,1.E0,0.E0));
#236=AXIS2_PLACEMENT_3D('',#233,#234,#235);
#237=PLANE('',#236);
#239=ORIENTED_EDGE('',*,*,#238,.F.);
#241=ORIENTED_EDGE('',*,*,#240,.F.);
#242=EDGE_LOOP('',(#239,#241));
#243=FACE_OUTER_BOUND('',#242,.F.);
#245=ORIENTED_EDGE('',*,*,#244,.T.);
#247=ORIENTED_EDGE('',*,*,#246,.T.);
#248=EDGE_LOOP('',(#245,#247));
#249=FACE_BOUND('',#248,.F.);
#250=ADVANCED_FACE('',(#243,#249),#237,.T.);
#251=CARTESIAN_POINT('',(9.999999995478E-2,0.E0,-8.285049760857E-14));
#252=DIRECTION('',(1.E0,0.E0,0.E0));
#253=DIRECTION('',(0.E0,0.E0,-1.E0));
#254=AXIS2_PLACEMENT_3D('',#251,#252,#253);
#255=CONICAL_SURFACE('',#254,1.289999999995E1,4.5E1);
#256=ORIENTED_EDGE('',*,*,#238,.T.);
#258=ORIENTED_EDGE('',*,*,#257,.T.);
#260=ORIENTED_EDGE('',*,*,#259,.F.);
#262=ORIENTED_EDGE('',*,*,#261,.F.);
#263=EDGE_LOOP('',(#256,#258,#260,#262));
#264=FACE_OUTER_BOUND('',#263,.F.);
#265=ADVANCED_FACE('',(#264),#255,.T.);
#266=CARTESIAN_POINT('',(9.999999995479E-2,0.E0,0.E0));
#267=DIRECTION('',(1.E0,0.E0,0.E0));
#268=DIRECTION('',(0.E0,0.E0,-1.E0));
#269=AXIS2_PLACEMENT_3D('',#266,#267,#268);
#270=CONICAL_SURFACE('',#269,1.289999999995E1,4.5E1);
#271=ORIENTED_EDGE('',*,*,#240,.T.);
#272=ORIENTED_EDGE('',*,*,#261,.T.);
#274=ORIENTED_EDGE('',*,*,#273,.F.);
#275=ORIENTED_EDGE('',*,*,#257,.F.);
#276=EDGE_LOOP('',(#271,#272,#274,#275));
#277=FACE_OUTER_BOUND('',#276,.F.);
#278=ADVANCED_FACE('',(#277),#270,.T.);
#279=CARTESIAN_POINT('',(0.E0,0.E0,0.E0));
#280=DIRECTION('',(-1.E0,0.E0,0.E0));
#281=DIRECTION('',(0.E0,1.E0,0.E0));
#282=AXIS2_PLACEMENT_3D('',#279,#280,#281);
#283=CYLINDRICAL_SURFACE('',#282,1.3E1);
#285=ORIENTED_EDGE('',*,*,#284,.F.);
#287=ORIENTED_EDGE('',*,*,#286,.T.);
#288=ORIENTED_EDGE('',*,*,#273,.T.);
#290=ORIENTED_EDGE('',*,*,#289,.F.);
#291=EDGE_LOOP('',(#285,#287,#288,#290));
#292=FACE_OUTER_BOUND('',#291,.F.);
#293=ADVANCED_FACE('',(#292),#283,.T.);
#294=CARTESIAN_POINT('',(8.900000000026E0,0.E0,0.E0));
#295=DIRECTION('',(-1.E0,0.E0,0.E0));
#296=DIRECTION('',(0.E0,0.E0,-1.E0));
#297=AXIS2_PLACEMENT_3D('',#294,#295,#296);
#298=CONICAL_SURFACE('',#297,1.289999999997E1,4.5E1);
#299=ORIENTED_EDGE('',*,*,#284,.T.);
#301=ORIENTED_EDGE('',*,*,#300,.T.);
#303=ORIENTED_EDGE('',*,*,#302,.F.);
#305=ORIENTED_EDGE('',*,*,#304,.F.);
#306=EDGE_LOOP('',(#299,#301,#303,#305));
#307=FACE_OUTER_BOUND('',#306,.F.);
#308=ADVANCED_FACE('',(#307),#298,.T.);
#309=CARTESIAN_POINT('',(8.900000000026E0,0.E0,-8.285049760857E-14));
#310=DIRECTION('',(-1.E0,0.E0,0.E0));
#311=DIRECTION('',(0.E0,0.E0,-1.E0));
#312=AXIS2_PLACEMENT_3D('',#309,#310,#311);
#313=CONICAL_SURFACE('',#312,1.289999999997E1,4.5E1);
#315=ORIENTED_EDGE('',*,*,#314,.T.);
#316=ORIENTED_EDGE('',*,*,#304,.T.);
#318=ORIENTED_EDGE('',*,*,#317,.F.);
#319=ORIENTED_EDGE('',*,*,#300,.F.);
#320=EDGE_LOOP('',(#315,#316,#318,#319));
#321=FACE_OUTER_BOUND('',#320,.F.);
#322=ADVANCED_FACE('',(#321),#313,.T.);
#323=CARTESIAN_POINT('',(0.E0,0.E0,0.E0));
#324=DIRECTION('',(-1.E0,0.E0,0.E0));
#325=DIRECTION('',(0.E0,1.E0,0.E0));
#326=AXIS2_PLACEMENT_3D('',#323,#324,#325);
#327=CYLINDRICAL_SURFACE('',#326,1.3E1);
#328=ORIENTED_EDGE('',*,*,#314,.F.);
#329=ORIENTED_EDGE('',*,*,#289,.T.);
#330=ORIENTED_EDGE('',*,*,#259,.T.);
#331=ORIENTED_EDGE('',*,*,#286,.F.);
#332=EDGE_LOOP('',(#328,#329,#330,#331));
#333=FACE_OUTER_BOUND('',#332,.F.);
#334=ADVANCED_FACE('',(#333),#327,.T.);
#335=CARTESIAN_POINT('',(9.E0,0.E0,0.E0));
#336=DIRECTION('',(-1.E0,0.E0,0.E0));
#337=DIRECTION('',(0.E0,1.E0,0.E0));
#338=AXIS2_PLACEMENT_3D('',#335,#336,#337);
#339=PLANE('',#338);
#340=ORIENTED_EDGE('',*,*,#317,.T.);
#341=ORIENTED_EDGE('',*,*,#302,.T.);
#342=EDGE_LOOP('',(#340,#341));
#343=FACE_OUTER_BOUND('',#342,.F.);
#345=ORIENTED_EDGE('',*,*,#344,.F.);
#347=ORIENTED_EDGE('',*,*,#346,.T.);
#348=EDGE_LOOP('',(#345,#347));
#349=FACE_BOUND('',#348,.F.);
#350=ADVANCED_FACE('',(#343,#349),#339,.F.);
#351=CARTESIAN_POINT('',(0.E0,0.E0,0.E0));
#352=DIRECTION('',(-1.E0,0.E0,0.E0));
#353=DIRECTION('',(0.E0,1.E0,0.E0));
#354=AXIS2_PLACEMENT_3D('',#351,#352,#353);
#355=CYLINDRICAL_SURFACE('',#354,1.E1);
#357=ORIENTED_EDGE('',*,*,#356,.F.);
#359=ORIENTED_EDGE('',*,*,#358,.T.);
#360=ORIENTED_EDGE('',*,*,#344,.T.);
#362=ORIENTED_EDGE('',*,*,#361,.F.);
#363=EDGE_LOOP('',(#357,#359,#360,#362));
#364=FACE_OUTER_BOUND('',#363,.F.);
#365=ADVANCED_FACE('',(#364),#355,.T.);
#366=CARTESIAN_POINT('',(1.090000000004E1,0.E0,-4.879416325505E-14));
#367=DIRECTION('',(-1.E0,0.E0,0.E0));
#368=DIRECTION('',(0.E0,0.E0,-1.E0));
#369=AXIS2_PLACEMENT_3D('',#366,#367,#368);
#370=CONICAL_SURFACE('',#369,9.899999999959E0,4.5E1);
#371=ORIENTED_EDGE('',*,*,#356,.T.);
#373=ORIENTED_EDGE('',*,*,#372,.T.);
#375=ORIENTED_EDGE('',*,*,#374,.F.);
#377=ORIENTED_EDGE('',*,*,#376,.F.);
#378=EDGE_LOOP('',(#371,#373,#375,#377));
#379=FACE_OUTER_BOUND('',#378,.F.);
#380=ADVANCED_FACE('',(#379),#370,.T.);
#381=CARTESIAN_POINT('',(1.090000000004E1,0.E0,0.E0));
#382=DIRECTION('',(-1.E0,0.E0,0.E0));
#383=DIRECTION('',(0.E0,0.E0,-1.E0));
#384=AXIS2_PLACEMENT_3D('',#381,#382,#383);
#385=CONICAL_SURFACE('',#384,9.899999999959E0,4.5E1);
#387=ORIENTED_EDGE('',*,*,#386,.T.);
#388=ORIENTED_EDGE('',*,*,#376,.T.);
#390=ORIENTED_EDGE('',*,*,#389,.F.);
#391=ORIENTED_EDGE('',*,*,#372,.F.);
#392=EDGE_LOOP('',(#387,#388,#390,#391));
#393=FACE_OUTER_BOUND('',#392,.F.);
#394=ADVANCED_FACE('',(#393),#385,.T.);
#395=CARTESIAN_POINT('',(0.E0,0.E0,0.E0));
#396=DIRECTION('',(-1.E0,0.E0,0.E0));
#397=DIRECTION('',(0.E0,1.E0,0.E0));
#398=AXIS2_PLACEMENT_3D('',#395,#396,#397);
#399=CYLINDRICAL_SURFACE('',#398,1.E1);
#400=ORIENTED_EDGE('',*,*,#386,.F.);
#401=ORIENTED_EDGE('',*,*,#361,.T.);
#402=ORIENTED_EDGE('',*,*,#346,.F.);
#403=ORIENTED_EDGE('',*,*,#358,.F.);
#404=EDGE_LOOP('',(#400,#401,#402,#403));
#405=FACE_OUTER_BOUND('',#404,.F.);
#406=ADVANCED_FACE('',(#405),#399,.T.);
#407=CARTESIAN_POINT('',(1.1E1,0.E0,0.E0));
#408=DIRECTION('',(-1.E0,0.E0,0.E0));
#409=DIRECTION('',(0.E0,1.E0,0.E0));
#410=AXIS2_PLACEMENT_3D('',#407,#408,#409);
#411=PLANE('',#410);
#412=ORIENTED_EDGE('',*,*,#374,.T.);
#413=ORIENTED_EDGE('',*,*,#389,.T.);
#414=EDGE_LOOP('',(#412,#413));
#415=FACE_OUTER_BOUND('',#414,.F.);
#417=ORIENTED_EDGE('',*,*,#416,.F.);
#419=ORIENTED_EDGE('',*,*,#418,.T.);
#420=EDGE_LOOP('',(#417,#419));
#421=FACE_BOUND('',#420,.F.);
#422=ADVANCED_FACE('',(#415,#421),#411,.F.);
#423=CARTESIAN_POINT('',(0.E0,0.E0,0.E0));
#424=DIRECTION('',(-1.E0,0.E0,0.E0));
#425=DIRECTION('',(0.E0,1.E0,0.E0));
#426=AXIS2_PLACEMENT_3D('',#423,#424,#425);
#427=CYLINDRICAL_SURFACE('',#426,7.5E0);
#429=ORIENTED_EDGE('',*,*,#428,.T.);
#430=ORIENTED_EDGE('',*,*,#416,.T.);
#432=ORIENTED_EDGE('',*,*,#431,.F.);
#434=ORIENTED_EDGE('',*,*,#433,.F.);
#435=EDGE_LOOP('',(#429,#430,#432,#434));
#436=FACE_OUTER_BOUND('',#435,.F.);
#437=ADVANCED_FACE('',(#436),#427,.F.);
#438=CARTESIAN_POINT('',(0.E0,0.E0,0.E0));
#439=DIRECTION('',(-1.E0,0.E0,0.E0));
#440=DIRECTION('',(0.E0,1.E0,0.E0));
#441=AXIS2_PLACEMENT_3D('',#438,#439,#440);
#442=CYLINDRICAL_SURFACE('',#441,7.5E0);
#443=ORIENTED_EDGE('',*,*,#428,.F.);
#445=ORIENTED_EDGE('',*,*,#444,.T.);
#446=ORIENTED_EDGE('',*,*,#431,.T.);
#447=ORIENTED_EDGE('',*,*,#418,.F.);
#448=EDGE_LOOP('',(#443,#445,#446,#447));
#449=FACE_OUTER_BOUND('',#448,.F.);
#450=ADVANCED_FACE('',(#449),#442,.F.);
#451=CARTESIAN_POINT('',(6.E0,0.E0,0.E0));
#452=DIRECTION('',(-1.E0,0.E0,0.E0));
#453=DIRECTION('',(0.E0,1.E0,0.E0));
#454=AXIS2_PLACEMENT_3D('',#451,#452,#453);
#455=PLANE('',#454);
#457=ORIENTED_EDGE('',*,*,#456,.F.);
#459=ORIENTED_EDGE('',*,*,#458,.T.);
#460=EDGE_LOOP('',(#457,#459));
#461=FACE_OUTER_BOUND('',#460,.F.);
#462=ORIENTED_EDGE('',*,*,#444,.F.);
#463=ORIENTED_EDGE('',*,*,#433,.T.);
#464=EDGE_LOOP('',(#462,#463));
#465=FACE_BOUND('',#464,.F.);
#466=ADVANCED_FACE('',(#461,#465),#455,.T.);
#467=CARTESIAN_POINT('',(0.E0,0.E0,0.E0));
#468=DIRECTION('',(-1.E0,0.E0,0.E0));
#469=DIRECTION('',(0.E0,1.E0,0.E0));
#470=AXIS2_PLACEMENT_3D('',#467,#468,#469);
#471=CYLINDRICAL_SURFACE('',#470,1.05E1);
#473=ORIENTED_EDGE('',*,*,#472,.F.);
#475=ORIENTED_EDGE('',*,*,#474,.T.);
#476=ORIENTED_EDGE('',*,*,#456,.T.);
#478=ORIENTED_EDGE('',*,*,#477,.F.);
#479=EDGE_LOOP('',(#473,#475,#476,#478));
#480=FACE_OUTER_BOUND('',#479,.F.);
#481=ADVANCED_FACE('',(#480),#471,.F.);
#482=CARTESIAN_POINT('',(1.000000000586E-1,0.E0,5.593902287453E-14));
#483=DIRECTION('',(-1.E0,0.E0,0.E0));
#484=DIRECTION('',(0.E0,0.E0,-1.E0));
#485=AXIS2_PLACEMENT_3D('',#482,#483,#484);
#486=CONICAL_SURFACE('',#485,1.059999999994E1,4.5E1);
#487=ORIENTED_EDGE('',*,*,#472,.T.);
#489=ORIENTED_EDGE('',*,*,#488,.T.);
#490=ORIENTED_EDGE('',*,*,#244,.F.);
#492=ORIENTED_EDGE('',*,*,#491,.F.);
#493=EDGE_LOOP('',(#487,#489,#490,#492));
#494=FACE_OUTER_BOUND('',#493,.F.);
#495=ADVANCED_FACE('',(#494),#486,.F.);
#496=CARTESIAN_POINT('',(1.000000000586E-1,0.E0,0.E0));
#497=DIRECTION('',(-1.E0,0.E0,0.E0));
#498=DIRECTION('',(0.E0,0.E0,-1.E0));
#499=AXIS2_PLACEMENT_3D('',#496,#497,#498);
#500=CONICAL_SURFACE('',#499,1.059999999994E1,4.5E1);
#502=ORIENTED_EDGE('',*,*,#501,.T.);
#503=ORIENTED_EDGE('',*,*,#491,.T.);
#504=ORIENTED_EDGE('',*,*,#246,.F.);
#505=ORIENTED_EDGE('',*,*,#488,.F.);
#506=EDGE_LOOP('',(#502,#503,#504,#505));
#507=FACE_OUTER_BOUND('',#506,.F.);
#508=ADVANCED_FACE('',(#507),#500,.F.);
#509=CARTESIAN_POINT('',(0.E0,0.E0,0.E0));
#510=DIRECTION('',(-1.E0,0.E0,0.E0));
#511=DIRECTION('',(0.E0,1.E0,0.E0));
#512=AXIS2_PLACEMENT_3D('',#509,#510,#511);
#513=CYLINDRICAL_SURFACE('',#512,1.05E1);
#514=ORIENTED_EDGE('',*,*,#501,.F.);
#515=ORIENTED_EDGE('',*,*,#477,.T.);
#516=ORIENTED_EDGE('',*,*,#458,.F.);
#517=ORIENTED_EDGE('',*,*,#474,.F.);
#518=EDGE_LOOP('',(#514,#515,#516,#517));
#519=FACE_OUTER_BOUND('',#518,.F.);
#520=ADVANCED_FACE('',(#519),#513,.F.);
#521=CLOSED_SHELL('',(#250,#265,#278,#293,#308,#322,#334,#350,#365,#380,#394,
#406,#422,#437,#450,#466,#481,#495,#508,#520));
#522=MANIFOLD_SOLID_BREP('',#521);
#524=DIMENSIONAL_EXPONENTS(0.E0,0.E0,0.E0,0.E0,0.E0,0.E0,0.E0);
#526=PLANE_ANGLE_MEASURE_WITH_UNIT(PLANE_ANGLE_MEASURE(1.745329251994E-2),#525);
#527=(CONVERSION_BASED_UNIT('DEGREE',#526)NAMED_UNIT(*)PLANE_ANGLE_UNIT());
#529=UNCERTAINTY_MEASURE_WITH_UNIT(LENGTH_MEASURE(3.838288032004E-3),#523,
'closure',
'Maximum model space distance between geometric entities at asserted connectivities');
#530=(GEOMETRIC_REPRESENTATION_CONTEXT(3)GLOBAL_UNCERTAINTY_ASSIGNED_CONTEXT((
#529))GLOBAL_UNIT_ASSIGNED_CONTEXT((#523,#527,#528))REPRESENTATION_CONTEXT
('ID1','3'));
#532=APPLICATION_CONTEXT(
'CONFIGURATION CONTROLLED 3D DESIGNS OF MECHANICAL PARTS AND ASSEMBLIES');
#533=APPLICATION_PROTOCOL_DEFINITION('international standard',
'config_control_design',1994,#532);
#534=DESIGN_CONTEXT('',#532,'design');
#535=MECHANICAL_CONTEXT('',#532,'mechanical');
#536=PRODUCT('ADAPTATEUR_1','ADAPTATEUR_1','NOT SPECIFIED',(#535));
#537=PRODUCT_DEFINITION_FORMATION_WITH_SPECIFIED_SOURCE('3','LAST_VERSION',#536,
.MADE.);
#541=PRODUCT_CATEGORY('part','');
#542=PRODUCT_RELATED_PRODUCT_CATEGORY('detail','',(#536));
#543=PRODUCT_CATEGORY_RELATIONSHIP('','',#541,#542);
#544=SECURITY_CLASSIFICATION_LEVEL('unclassified');
#545=SECURITY_CLASSIFICATION('','',#544);
#546=CC_DESIGN_SECURITY_CLASSIFICATION(#545,(#537));
#547=APPROVAL_STATUS('approved');
#548=APPROVAL(#547,'');
#549=CC_DESIGN_APPROVAL(#548,(#545,#537,#538));
#550=CALENDAR_DATE(122,11,1);
#551=COORDINATED_UNIVERSAL_TIME_OFFSET(1,0,.AHEAD.);
#552=LOCAL_TIME(9,8,4.3E1,#551);
#553=DATE_AND_TIME(#550,#552);
#554=APPROVAL_DATE_TIME(#553,#548);
#555=DATE_TIME_ROLE('creation_date');
#556=CC_DESIGN_DATE_AND_TIME_ASSIGNMENT(#553,#555,(#538));
#557=DATE_TIME_ROLE('classification_date');
#558=CC_DESIGN_DATE_AND_TIME_ASSIGNMENT(#553,#557,(#545));
#559=PERSON('UNSPECIFIED','UNSPECIFIED',$,$,$,$);
#560=ORGANIZATION('UNSPECIFIED','UNSPECIFIED','UNSPECIFIED');
#561=PERSON_AND_ORGANIZATION(#559,#560);
#562=APPROVAL_ROLE('approver');
#563=APPROVAL_PERSON_ORGANIZATION(#561,#548,#562);
#564=PERSON_AND_ORGANIZATION_ROLE('creator');
#565=CC_DESIGN_PERSON_AND_ORGANIZATION_ASSIGNMENT(#561,#564,(#537,#538));
#566=PERSON_AND_ORGANIZATION_ROLE('design_supplier');
#567=CC_DESIGN_PERSON_AND_ORGANIZATION_ASSIGNMENT(#561,#566,(#537));
#568=PERSON_AND_ORGANIZATION_ROLE('classification_officer');
#569=CC_DESIGN_PERSON_AND_ORGANIZATION_ASSIGNMENT(#561,#568,(#545));
#570=PERSON_AND_ORGANIZATION_ROLE('design_owner');
#571=CC_DESIGN_PERSON_AND_ORGANIZATION_ASSIGNMENT(#561,#570,(#536));
#5=CIRCLE('',#4,1.28E1);
#10=CIRCLE('',#9,1.28E1);
#15=CIRCLE('',#14,1.07E1);
#20=CIRCLE('',#19,1.07E1);
#33=CIRCLE('',#32,1.3E1);
#42=CIRCLE('',#41,1.3E1);
#59=CIRCLE('',#58,1.3E1);
#64=CIRCLE('',#63,1.3E1);
#69=CIRCLE('',#68,1.E1);
#74=CIRCLE('',#73,1.E1);
#79=CIRCLE('',#78,1.28E1);
#84=CIRCLE('',#83,1.28E1);
#89=CIRCLE('',#88,1.E1);
#102=CIRCLE('',#101,1.E1);
#115=CIRCLE('',#114,7.5E0);
#120=CIRCLE('',#119,7.5E0);
#125=CIRCLE('',#124,9.8E0);
#130=CIRCLE('',#129,9.8E0);
#135=CIRCLE('',#134,7.5E0);
#144=CIRCLE('',#143,7.5E0);
#153=CIRCLE('',#152,1.05E1);
#158=CIRCLE('',#157,1.05E1);
#163=CIRCLE('',#162,1.05E1);
#176=CIRCLE('',#175,1.05E1);
#238=EDGE_CURVE('',#219,#220,#5,.T.);
#240=EDGE_CURVE('',#220,#219,#10,.T.);
#244=EDGE_CURVE('',#231,#232,#15,.T.);
#246=EDGE_CURVE('',#232,#231,#20,.T.);
#257=EDGE_CURVE('',#220,#224,#28,.T.);
#259=EDGE_CURVE('',#223,#224,#64,.T.);
#261=EDGE_CURVE('',#219,#223,#24,.T.);
#273=EDGE_CURVE('',#224,#223,#42,.T.);
#284=EDGE_CURVE('',#212,#211,#33,.T.);
#286=EDGE_CURVE('',#212,#224,#37,.T.);
#289=EDGE_CURVE('',#211,#223,#46,.T.);
#300=EDGE_CURVE('',#211,#215,#54,.T.);
#302=EDGE_CURVE('',#216,#215,#84,.T.);
#304=EDGE_CURVE('',#212,#216,#50,.T.);
#314=EDGE_CURVE('',#211,#212,#59,.T.);
#317=EDGE_CURVE('',#215,#216,#79,.T.);
#344=EDGE_CURVE('',#199,#200,#69,.T.);
#346=EDGE_CURVE('',#199,#200,#74,.T.);
#356=EDGE_CURVE('',#203,#204,#89,.T.);
#358=EDGE_CURVE('',#203,#199,#110,.T.);
#361=EDGE_CURVE('',#204,#200,#106,.T.);
#372=EDGE_CURVE('',#204,#208,#97,.T.);
#374=EDGE_CURVE('',#207,#208,#125,.T.);
#376=EDGE_CURVE('',#203,#207,#93,.T.);
#386=EDGE_CURVE('',#204,#203,#102,.T.);
#389=EDGE_CURVE('',#208,#207,#130,.T.);
#416=EDGE_CURVE('',#188,#192,#115,.T.);
#418=EDGE_CURVE('',#188,#192,#120,.T.);
#428=EDGE_CURVE('',#187,#188,#139,.T.);
#431=EDGE_CURVE('',#191,#192,#148,.T.);
#433=EDGE_CURVE('',#187,#191,#135,.T.);
#444=EDGE_CURVE('',#187,#191,#144,.T.);
#456=EDGE_CURVE('',#195,#196,#153,.T.);
#458=EDGE_CURVE('',#195,#196,#158,.T.);
#472=EDGE_CURVE('',#227,#228,#163,.T.);
#474=EDGE_CURVE('',#227,#195,#184,.T.);
#477=EDGE_CURVE('',#228,#196,#180,.T.);
#488=EDGE_CURVE('',#228,#232,#171,.T.);
#491=EDGE_CURVE('',#227,#231,#167,.T.);
#501=EDGE_CURVE('',#228,#227,#176,.T.);
#523=(LENGTH_UNIT()NAMED_UNIT(*)SI_UNIT(.MILLI.,.METRE.));
#525=(NAMED_UNIT(*)PLANE_ANGLE_UNIT()SI_UNIT($,.RADIAN.));
#528=(NAMED_UNIT(*)SI_UNIT($,.STERADIAN.)SOLID_ANGLE_UNIT());
#531=ADVANCED_BREP_SHAPE_REPRESENTATION('',(#522),#530);
#538=PRODUCT_DEFINITION('design','',#537,#534);
#539=PRODUCT_DEFINITION_SHAPE('','SHAPE FOR ADAPTATEUR_1.',#538);
#540=SHAPE_DEFINITION_REPRESENTATION(#539,#531);
ENDSEC;
END-ISO-10303-21;
