ISO-10303-21;
HEADER;
FILE_DESCRIPTION (( 'STEP AP203' ),
    '1' );
FILE_NAME ('pion acier.STEP',
    '2022-01-07T14:28:49',
    ( '' ),
    ( '' ),
    'SwSTEP 2.0',
    'SolidWorks 2019',
    '' );
FILE_SCHEMA (( 'CONFIG_CONTROL_DESIGN' ));
ENDSEC;

DATA;
#1 = APPROVAL_ROLE ( '' ) ;
#2 = CARTESIAN_POINT ( 'NONE',  ( 1.500000000000000222, 1.836970198721029934E-16, 1.000000000000000888 ) ) ;
#3 = PERSON_AND_ORGANIZATION ( #50, #33 ) ;
#4 = DIRECTION ( 'NONE',  ( 0.000000000000000000, 0.000000000000000000, 1.000000000000000000 ) ) ;
#5 = LOCAL_TIME ( 15, 28, 49.00000000000000000, #89 ) ;
#6 = LOCAL_TIME ( 15, 28, 49.00000000000000000, #163 ) ;
#7 = ADVANCED_BREP_SHAPE_REPRESENTATION ( 'pion acier', ( #69, #58 ), #121 ) ;
#8 = CARTESIAN_POINT ( 'NONE',  ( 1.499999999999999778, 1.836970198721029194E-16, 0.000000000000000000 ) ) ;
#9 = CARTESIAN_POINT ( 'NONE',  ( -1.500000000000000222, 0.000000000000000000, 1.000000000000000888 ) ) ;
#10 = PERSON_AND_ORGANIZATION ( #50, #33 ) ;
#11 = CALENDAR_DATE ( 2022, 7, 1 ) ;
#12 = EDGE_LOOP ( 'NONE', ( #93, #15 ) ) ;
#13 = CALENDAR_DATE ( 2022, 7, 1 ) ;
#14 = PERSON_AND_ORGANIZATION ( #50, #33 ) ;
#15 = ORIENTED_EDGE ( 'NONE', *, *, #158, .T. ) ;
#16 =( NAMED_UNIT ( * ) SI_UNIT ( $, .STERADIAN. ) SOLID_ANGLE_UNIT ( ) );
#17 = DIRECTION ( 'NONE',  ( 1.000000000000000000, 0.000000000000000000, 0.000000000000000000 ) ) ;
#18 = ORIENTED_EDGE ( 'NONE', *, *, #158, .F. ) ;
#19 = APPROVAL ( #92, 'UNSPECIFIED' ) ;
#20 = LOCAL_TIME ( 15, 28, 49.00000000000000000, #52 ) ;
#21 = CYLINDRICAL_SURFACE ( 'NONE', #110, 1.500000000000000222 ) ;
#22 = EDGE_CURVE ( 'NONE', #90, #141, #175, .T. ) ;
#23 =( LENGTH_UNIT ( ) NAMED_UNIT ( * ) SI_UNIT ( .MILLI., .METRE. ) );
#24 = CC_DESIGN_PERSON_AND_ORGANIZATION_ASSIGNMENT ( #80, #173, ( #160 ) ) ;
#25 = DIRECTION ( 'NONE',  ( 0.000000000000000000, -0.000000000000000000, -1.000000000000000000 ) ) ;
#26 = CARTESIAN_POINT ( 'NONE',  ( 0.000000000000000000, 0.000000000000000000, 1.000000000000000888 ) ) ;
#27 = AXIS2_PLACEMENT_3D ( 'NONE', #104, #31, #144 ) ;
#28 = VECTOR ( 'NONE', #25, 1000.000000000000000 ) ;
#29 = PERSON_AND_ORGANIZATION ( #50, #33 ) ;
#30 = SHAPE_DEFINITION_REPRESENTATION ( #114, #7 ) ;
#31 = DIRECTION ( 'NONE',  ( 0.000000000000000000, 0.000000000000000000, 1.000000000000000000 ) ) ;
#32 = CIRCLE ( 'NONE', #27, 1.500000000000000222 ) ;
#33 = ORGANIZATION ( 'UNSPECIFIED', 'UNSPECIFIED', '' ) ;
#34 = DIRECTION ( 'NONE',  ( 0.000000000000000000, 0.000000000000000000, 1.000000000000000000 ) ) ;
#35 = PERSON_AND_ORGANIZATION ( #50, #33 ) ;
#36 = CALENDAR_DATE ( 2022, 7, 1 ) ;
#37 = APPROVAL ( #135, 'UNSPECIFIED' ) ;
#38 = MECHANICAL_CONTEXT ( 'NONE', #57, 'mechanical' ) ;
#39 = EDGE_LOOP ( 'NONE', ( #139, #125 ) ) ;
#40 = DIRECTION ( 'NONE',  ( 0.000000000000000000, 0.000000000000000000, 1.000000000000000000 ) ) ;
#41 = PLANE ( 'NONE',  #75 ) ;
#42 = CARTESIAN_POINT ( 'NONE',  ( 0.000000000000000000, 0.000000000000000000, 1.000000000000000888 ) ) ;
#43 = CC_DESIGN_APPROVAL ( #19, ( #99 ) ) ;
#44 = APPROVAL_PERSON_ORGANIZATION ( #29, #37, #1 ) ;
#45 = AXIS2_PLACEMENT_3D ( 'NONE', #26, #34, #146 ) ;
#46 = LINE ( 'NONE', #9, #28 ) ;
#47 = EDGE_CURVE ( 'NONE', #97, #141, #151, .T. ) ;
#48 = COORDINATED_UNIVERSAL_TIME_OFFSET ( 1, 0, .AHEAD. ) ;
#49 = CARTESIAN_POINT ( 'NONE',  ( 1.499999999999999778, 1.836970198721029194E-16, 1.000000000000000888 ) ) ;
#50 = PERSON ( 'UNSPECIFIED', 'UNSPECIFIED', 'UNSPECIFIED', ('UNSPECIFIED'), ('UNSPECIFIED'), ('UNSPECIFIED') ) ;
#51 = CARTESIAN_POINT ( 'NONE',  ( 0.000000000000000000, 0.000000000000000000, 0.000000000000000000 ) ) ;
#52 = COORDINATED_UNIVERSAL_TIME_OFFSET ( 1, 0, .AHEAD. ) ;
#53 = CARTESIAN_POINT ( 'NONE',  ( 0.000000000000000000, 0.000000000000000000, 0.000000000000000000 ) ) ;
#54 = LOCAL_TIME ( 15, 28, 49.00000000000000000, #138 ) ;
#55 = APPROVAL ( #61, 'UNSPECIFIED' ) ;
#56 = DIRECTION ( 'NONE',  ( 0.000000000000000000, -0.000000000000000000, -1.000000000000000000 ) ) ;
#57 = APPLICATION_CONTEXT ( 'configuration controlled 3d designs of mechanical parts and assemblies' ) ;
#58 = AXIS2_PLACEMENT_3D ( 'NONE', #51, #40, #64 ) ;
#59 = DIRECTION ( 'NONE',  ( 0.000000000000000000, 0.000000000000000000, 1.000000000000000000 ) ) ;
#60 = PRODUCT ( 'pion acier', 'pion acier', '', ( #38 ) ) ;
#61 = APPROVAL_STATUS ( 'not_yet_approved' ) ;
#62 = ORIENTED_EDGE ( 'NONE', *, *, #166, .F. ) ;
#63 = DATE_AND_TIME ( #13, #6 ) ;
#64 = DIRECTION ( 'NONE',  ( 1.000000000000000000, 0.000000000000000000, 0.000000000000000000 ) ) ;
#65 = EDGE_LOOP ( 'NONE', ( #81, #120, #142, #66 ) ) ;
#66 = ORIENTED_EDGE ( 'NONE', *, *, #47, .T. ) ;
#67 = UNCERTAINTY_MEASURE_WITH_UNIT (LENGTH_MEASURE( 1.000000000000000082E-05 ), #23, 'distance_accuracy_value', 'NONE');
#68 = ADVANCED_FACE ( 'NONE', ( #108 ), #41, .F. ) ;
#69 = MANIFOLD_SOLID_BREP ( 'Boss.-Extru.1', #109 ) ;
#70 = LOCAL_TIME ( 15, 28, 49.00000000000000000, #48 ) ;
#71 = CARTESIAN_POINT ( 'NONE',  ( 0.000000000000000000, 0.000000000000000000, 1.000000000000000888 ) ) ;
#72 = DIRECTION ( 'NONE',  ( 0.000000000000000000, -0.000000000000000000, -1.000000000000000000 ) ) ;
#73 = CIRCLE ( 'NONE', #45, 1.500000000000000222 ) ;
#74 = DIRECTION ( 'NONE',  ( 1.000000000000000000, 0.000000000000000000, 0.000000000000000000 ) ) ;
#75 = AXIS2_PLACEMENT_3D ( 'NONE', #53, #98, #128 ) ;
#76 = APPROVAL_PERSON_ORGANIZATION ( #10, #55, #77 ) ;
#77 = APPROVAL_ROLE ( '' ) ;
#78 = EDGE_LOOP ( 'NONE', ( #18, #137, #154, #62 ) ) ;
#79 = APPLICATION_PROTOCOL_DEFINITION ( 'international standard', 'config_control_design', 1994, #118 ) ;
#80 = PERSON_AND_ORGANIZATION ( #50, #33 ) ;
#81 = ORIENTED_EDGE ( 'NONE', *, *, #22, .F. ) ;
#82 = PLANE ( 'NONE',  #94 ) ;
#83 = FACE_OUTER_BOUND ( 'NONE', #65, .T. ) ;
#84 = AXIS2_PLACEMENT_3D ( 'NONE', #167, #4, #17 ) ;
#85 = DIRECTION ( 'NONE',  ( 1.000000000000000000, 0.000000000000000000, 0.000000000000000000 ) ) ;
#86 = CYLINDRICAL_SURFACE ( 'NONE', #133, 1.500000000000000222 ) ;
#87 = CARTESIAN_POINT ( 'NONE',  ( 0.000000000000000000, 0.000000000000000000, 1.000000000000000888 ) ) ;
#88 = PERSON_AND_ORGANIZATION_ROLE ( 'creator' ) ;
#89 = COORDINATED_UNIVERSAL_TIME_OFFSET ( 1, 0, .AHEAD. ) ;
#90 = VERTEX_POINT ( 'NONE', #49 ) ;
#91 = EDGE_CURVE ( 'NONE', #141, #97, #32, .T. ) ;
#92 = APPROVAL_STATUS ( 'not_yet_approved' ) ;
#93 = ORIENTED_EDGE ( 'NONE', *, *, #161, .T. ) ;
#94 = AXIS2_PLACEMENT_3D ( 'NONE', #116, #59, #85 ) ;
#95 = PERSON_AND_ORGANIZATION_ROLE ( 'creator' ) ;
#96 = CC_DESIGN_PERSON_AND_ORGANIZATION_ASSIGNMENT ( #106, #95, ( #160 ) ) ;
#97 = VERTEX_POINT ( 'NONE', #130 ) ;
#98 = DIRECTION ( 'NONE',  ( 0.000000000000000000, 0.000000000000000000, 1.000000000000000000 ) ) ;
#99 = PRODUCT_DEFINITION ( 'UNKNOWN', '', #160, #169 ) ;
#100 = AXIS2_PLACEMENT_3D ( 'NONE', #87, #148, #74 ) ;
#101 = DIRECTION ( 'NONE',  ( -1.000000000000000000, 0.000000000000000000, 0.000000000000000000 ) ) ;
#102 = PERSON_AND_ORGANIZATION ( #50, #33 ) ;
#103 = PERSON_AND_ORGANIZATION_ROLE ( 'design_owner' ) ;
#104 = CARTESIAN_POINT ( 'NONE',  ( 0.000000000000000000, 0.000000000000000000, 0.000000000000000000 ) ) ;
#105 = APPROVAL_DATE_TIME ( #119, #19 ) ;
#106 = PERSON_AND_ORGANIZATION ( #50, #33 ) ;
#107 = DATE_AND_TIME ( #11, #20 ) ;
#108 = FACE_OUTER_BOUND ( 'NONE', #39, .T. ) ;
#109 = CLOSED_SHELL ( 'NONE', ( #112, #123, #147, #68 ) ) ;
#110 = AXIS2_PLACEMENT_3D ( 'NONE', #71, #72, #101 ) ;
#111 = DIRECTION ( 'NONE',  ( 0.000000000000000000, -0.000000000000000000, -1.000000000000000000 ) ) ;
#112 = ADVANCED_FACE ( 'NONE', ( #113 ), #86, .T. ) ;
#113 = FACE_OUTER_BOUND ( 'NONE', #78, .T. ) ;
#114 = PRODUCT_DEFINITION_SHAPE ( 'NONE', 'NONE',  #99 ) ;
#115 = PRODUCT_RELATED_PRODUCT_CATEGORY ( 'detail', '', ( #60 ) ) ;
#116 = CARTESIAN_POINT ( 'NONE',  ( 0.000000000000000000, 0.000000000000000000, 1.000000000000000888 ) ) ;
#117 = APPROVAL_DATE_TIME ( #63, #55 ) ;
#118 = APPLICATION_CONTEXT ( 'configuration controlled 3d designs of mechanical parts and assemblies' ) ;
#119 = DATE_AND_TIME ( #164, #5 ) ;
#120 = ORIENTED_EDGE ( 'NONE', *, *, #161, .F. ) ;
#121 =( GEOMETRIC_REPRESENTATION_CONTEXT ( 3 ) GLOBAL_UNCERTAINTY_ASSIGNED_CONTEXT ( ( #67 ) ) GLOBAL_UNIT_ASSIGNED_CONTEXT ( ( #23, #171, #16 ) ) REPRESENTATION_CONTEXT ( 'NONE', 'WORKASPACE' ) );
#122 = APPROVAL_ROLE ( '' ) ;
#123 = ADVANCED_FACE ( 'NONE', ( #83 ), #21, .T. ) ;
#124 = DATE_AND_TIME ( #36, #70 ) ;
#125 = ORIENTED_EDGE ( 'NONE', *, *, #91, .F. ) ;
#126 = CC_DESIGN_APPROVAL ( #37, ( #145 ) ) ;
#127 = CC_DESIGN_APPROVAL ( #55, ( #160 ) ) ;
#128 = DIRECTION ( 'NONE',  ( 1.000000000000000000, 0.000000000000000000, 0.000000000000000000 ) ) ;
#129 = CC_DESIGN_PERSON_AND_ORGANIZATION_ASSIGNMENT ( #35, #103, ( #60 ) ) ;
#130 = CARTESIAN_POINT ( 'NONE',  ( -1.499999999999999778, 0.000000000000000000, 0.000000000000000000 ) ) ;
#131 = CC_DESIGN_SECURITY_CLASSIFICATION ( #145, ( #160 ) ) ;
#132 = CC_DESIGN_DATE_AND_TIME_ASSIGNMENT ( #152, #136, ( #99 ) ) ;
#133 = AXIS2_PLACEMENT_3D ( 'NONE', #42, #56, #170 ) ;
#134 = APPLICATION_PROTOCOL_DEFINITION ( 'international standard', 'config_control_design', 1994, #57 ) ;
#135 = APPROVAL_STATUS ( 'not_yet_approved' ) ;
#136 = DATE_TIME_ROLE ( 'creation_date' ) ;
#137 = ORIENTED_EDGE ( 'NONE', *, *, #22, .T. ) ;
#138 = COORDINATED_UNIVERSAL_TIME_OFFSET ( 1, 0, .AHEAD. ) ;
#139 = ORIENTED_EDGE ( 'NONE', *, *, #47, .F. ) ;
#140 = DATE_TIME_ROLE ( 'classification_date' ) ;
#141 = VERTEX_POINT ( 'NONE', #8 ) ;
#142 = ORIENTED_EDGE ( 'NONE', *, *, #166, .T. ) ;
#143 = VECTOR ( 'NONE', #111, 1000.000000000000000 ) ;
#144 = DIRECTION ( 'NONE',  ( 1.000000000000000000, 0.000000000000000000, 0.000000000000000000 ) ) ;
#145 = SECURITY_CLASSIFICATION ( '', '', #153 ) ;
#146 = DIRECTION ( 'NONE',  ( 1.000000000000000000, 0.000000000000000000, 0.000000000000000000 ) ) ;
#147 = ADVANCED_FACE ( 'NONE', ( #157 ), #82, .T. ) ;
#148 = DIRECTION ( 'NONE',  ( 0.000000000000000000, 0.000000000000000000, 1.000000000000000000 ) ) ;
#149 = CC_DESIGN_PERSON_AND_ORGANIZATION_ASSIGNMENT ( #102, #88, ( #99 ) ) ;
#150 = CALENDAR_DATE ( 2022, 7, 1 ) ;
#151 = CIRCLE ( 'NONE', #84, 1.500000000000000222 ) ;
#152 = DATE_AND_TIME ( #150, #54 ) ;
#153 = SECURITY_CLASSIFICATION_LEVEL ( 'unclassified' ) ;
#154 = ORIENTED_EDGE ( 'NONE', *, *, #91, .T. ) ;
#155 = APPROVAL_DATE_TIME ( #107, #37 ) ;
#156 = VERTEX_POINT ( 'NONE', #162 ) ;
#157 = FACE_OUTER_BOUND ( 'NONE', #12, .T. ) ;
#158 = EDGE_CURVE ( 'NONE', #90, #156, #73, .T. ) ;
#159 = APPROVAL_PERSON_ORGANIZATION ( #3, #19, #122 ) ;
#160 = PRODUCT_DEFINITION_FORMATION_WITH_SPECIFIED_SOURCE ( 'ANY', '', #60, .NOT_KNOWN. ) ;
#161 = EDGE_CURVE ( 'NONE', #156, #90, #174, .T. ) ;
#162 = CARTESIAN_POINT ( 'NONE',  ( -1.499999999999999778, 0.000000000000000000, 1.000000000000000888 ) ) ;
#163 = COORDINATED_UNIVERSAL_TIME_OFFSET ( 1, 0, .AHEAD. ) ;
#164 = CALENDAR_DATE ( 2022, 7, 1 ) ;
#165 = PERSON_AND_ORGANIZATION_ROLE ( 'classification_officer' ) ;
#166 = EDGE_CURVE ( 'NONE', #156, #97, #46, .T. ) ;
#167 = CARTESIAN_POINT ( 'NONE',  ( 0.000000000000000000, 0.000000000000000000, 0.000000000000000000 ) ) ;
#168 = CC_DESIGN_PERSON_AND_ORGANIZATION_ASSIGNMENT ( #14, #165, ( #145 ) ) ;
#169 = DESIGN_CONTEXT ( 'detailed design', #118, 'design' ) ;
#170 = DIRECTION ( 'NONE',  ( -1.000000000000000000, 0.000000000000000000, 0.000000000000000000 ) ) ;
#171 =( NAMED_UNIT ( * ) PLANE_ANGLE_UNIT ( ) SI_UNIT ( $, .RADIAN. ) );
#172 = CC_DESIGN_DATE_AND_TIME_ASSIGNMENT ( #124, #140, ( #145 ) ) ;
#173 = PERSON_AND_ORGANIZATION_ROLE ( 'design_supplier' ) ;
#174 = CIRCLE ( 'NONE', #100, 1.500000000000000222 ) ;
#175 = LINE ( 'NONE', #2, #143 ) ;
ENDSEC;
END-ISO-10303-21;
