ISO-10303-21;
HEADER;
FILE_DESCRIPTION (( 'STEP AP214' ),
    '1' );
FILE_NAME ('000043-02-008_Entretoise de pivot.STEP',
    '2022-01-21T13:08:16',
    ( '' ),
    ( '' ),
    'SwSTEP 2.0',
    'SolidWorks 2014',
    '' );
FILE_SCHEMA (( 'AUTOMOTIVE_DESIGN' ));
ENDSEC;

DATA;
#1 = DIRECTION ( 'NONE',  ( 0.0000000000000000000, 0.0000000000000000000, 1.000000000000000000 ) ) ;
#2 = ORIENTED_EDGE ( 'NONE', *, *, #154, .T. ) ;
#3 = FACE_OUTER_BOUND ( 'NONE', #172, .T. ) ;
#4 = DIRECTION ( 'NONE',  ( -0.0000000000000000000, -1.000000000000000000, -0.0000000000000000000 ) ) ;
#5 = CARTESIAN_POINT ( 'NONE',  ( 0.0000000000000000000, 6.500000000000000000, 0.0000000000000000000 ) ) ;
#6 = EDGE_CURVE ( 'NONE', #18, #131, #14, .T. ) ;
#7 = EDGE_LOOP ( 'NONE', ( #75, #204 ) ) ;
#8 = VECTOR ( 'NONE', #73, 1000.000000000000000 ) ;
#9 = CARTESIAN_POINT ( 'NONE',  ( 9.797174393178823700E-016, 6.500000000000000000, 8.000000000000000000 ) ) ;
#10 = DIRECTION ( 'NONE',  ( 0.0000000000000000000, 0.0000000000000000000, -1.000000000000000000 ) ) ;
#11 = ORIENTED_EDGE ( 'NONE', *, *, #104, .F. ) ;
#12 = DIRECTION ( 'NONE',  ( 0.0000000000000000000, 1.000000000000000000, 0.0000000000000000000 ) ) ;
#13 = AXIS2_PLACEMENT_3D ( 'NONE', #71, #134, #133 ) ;
#14 = CIRCLE ( 'NONE', #164, 8.000000000000000000 ) ;
#15 = APPLICATION_PROTOCOL_DEFINITION ( 'draft international standard', 'automotive_design', 1998, #212 ) ;
#16 = CARTESIAN_POINT ( 'NONE',  ( 0.0000000000000000000, 6.500000000000000000, 0.0000000000000000000 ) ) ;
#17 = ORIENTED_EDGE ( 'NONE', *, *, #49, .F. ) ;
#18 = VERTEX_POINT ( 'NONE', #149 ) ;
#19 = DIRECTION ( 'NONE',  ( 0.0000000000000000000, 1.000000000000000000, 0.0000000000000000000 ) ) ;
#20 = DIRECTION ( 'NONE',  ( -0.0000000000000000000, -1.000000000000000000, -0.0000000000000000000 ) ) ;
#21 = CARTESIAN_POINT ( 'NONE',  ( 0.0000000000000000000, 6.500000000000000000, 0.0000000000000000000 ) ) ;
#22 = DIRECTION ( 'NONE',  ( 0.0000000000000000000, 1.000000000000000000, 0.0000000000000000000 ) ) ;
#23 = PRODUCT_DEFINITION ( 'UNKNOWN', '', #55, #81 ) ;
#24 = VERTEX_POINT ( 'NONE', #143 ) ;
#25 = ORIENTED_EDGE ( 'NONE', *, *, #42, .T. ) ;
#26 =( NAMED_UNIT ( * ) SI_UNIT ( $, .STERADIAN. ) SOLID_ANGLE_UNIT ( ) );
#27 =( NAMED_UNIT ( * ) SI_UNIT ( $, .STERADIAN. ) SOLID_ANGLE_UNIT ( ) );
#28 = DIRECTION ( 'NONE',  ( 1.000000000000000000, 0.0000000000000000000, 0.0000000000000000000 ) ) ;
#29 = SURFACE_SIDE_STYLE ('',( #122 ) ) ;
#30 = EDGE_LOOP ( 'NONE', ( #152, #40 ) ) ;
#31 = UNCERTAINTY_MEASURE_WITH_UNIT (LENGTH_MEASURE( 1.000000000000000100E-005 ), #119, 'distance_accuracy_value', 'NONE');
#32 = DIRECTION ( 'NONE',  ( 0.0000000000000000000, 0.0000000000000000000, -1.000000000000000000 ) ) ;
#33 = SURFACE_STYLE_USAGE ( .BOTH. , #89 ) ;
#34 = PRESENTATION_LAYER_ASSIGNMENT (  '', '', ( #194 ) ) ;
#35 = FACE_BOUND ( 'NONE', #7, .T. ) ;
#36 = CIRCLE ( 'NONE', #54, 6.499999999999999100 ) ;
#37 = ORIENTED_EDGE ( 'NONE', *, *, #6, .F. ) ;
#38 = CIRCLE ( 'NONE', #128, 6.499999999999999100 ) ;
#39 = ADVANCED_FACE ( 'NONE', ( #106, #35 ), #96, .F. ) ;
#40 = ORIENTED_EDGE ( 'NONE', *, *, #201, .T. ) ;
#41 = DIRECTION ( 'NONE',  ( 0.0000000000000000000, 0.0000000000000000000, 1.000000000000000000 ) ) ;
#42 = EDGE_CURVE ( 'NONE', #131, #18, #72, .T. ) ;
#43 = PLANE ( 'NONE',  #114 ) ;
#44 = MANIFOLD_SOLID_BREP ( 'Boss.-Extru.1', #58 ) ;
#45 = ORIENTED_EDGE ( 'NONE', *, *, #199, .T. ) ;
#46 = LINE ( 'NONE', #161, #181 ) ;
#47 = DIRECTION ( 'NONE',  ( 0.0000000000000000000, 1.000000000000000000, 0.0000000000000000000 ) ) ;
#48 = CARTESIAN_POINT ( 'NONE',  ( 0.0000000000000000000, 6.500000000000000000, 0.0000000000000000000 ) ) ;
#49 = EDGE_CURVE ( 'NONE', #196, #170, #38, .T. ) ;
#50 = FACE_OUTER_BOUND ( 'NONE', #52, .T. ) ;
#51 = CYLINDRICAL_SURFACE ( 'NONE', #83, 8.000000000000000000 ) ;
#52 = EDGE_LOOP ( 'NONE', ( #177, #45, #25, #185 ) ) ;
#53 = COLOUR_RGB ( '',0.5294117647058823600, 0.5490196078431373000, 0.5490196078431373000 ) ;
#54 = AXIS2_PLACEMENT_3D ( 'NONE', #144, #115, #100 ) ;
#55 = PRODUCT_DEFINITION_FORMATION_WITH_SPECIFIED_SOURCE ( 'ANY', '', #214, .NOT_KNOWN. ) ;
#56 = ORIENTED_EDGE ( 'NONE', *, *, #138, .F. ) ;
#57 = DIRECTION ( 'NONE',  ( -0.0000000000000000000, -1.000000000000000000, -0.0000000000000000000 ) ) ;
#58 = CLOSED_SHELL ( 'NONE', ( #205, #171, #160, #39, #158, #156 ) ) ;
#59 = VERTEX_POINT ( 'NONE', #173 ) ;
#60 = DIRECTION ( 'NONE',  ( 0.0000000000000000000, 1.000000000000000000, 0.0000000000000000000 ) ) ;
#61 = ORIENTED_EDGE ( 'NONE', *, *, #42, .F. ) ;
#62 = DIRECTION ( 'NONE',  ( -0.0000000000000000000, -1.000000000000000000, -0.0000000000000000000 ) ) ;
#63 = AXIS2_PLACEMENT_3D ( 'NONE', #178, #62, #10 ) ;
#64 = SURFACE_STYLE_FILL_AREA ( #209 ) ;
#65 = DIRECTION ( 'NONE',  ( -0.0000000000000000000, -1.000000000000000000, -0.0000000000000000000 ) ) ;
#66 = FACE_BOUND ( 'NONE', #189, .T. ) ;
#67 = ORIENTED_EDGE ( 'NONE', *, *, #6, .T. ) ;
#68 = ADVANCED_BREP_SHAPE_REPRESENTATION ( '000043-02-008_Entretoise de pivot', ( #44, #182 ), #91 ) ;
#69 = DIRECTION ( 'NONE',  ( 0.0000000000000000000, 0.0000000000000000000, -1.000000000000000000 ) ) ;
#70 = PRODUCT_RELATED_PRODUCT_CATEGORY ( 'part', '', ( #214 ) ) ;
#71 = CARTESIAN_POINT ( 'NONE',  ( 0.0000000000000000000, 0.0000000000000000000, 0.0000000000000000000 ) ) ;
#72 = CIRCLE ( 'NONE', #159, 8.000000000000000000 ) ;
#73 = DIRECTION ( 'NONE',  ( -0.0000000000000000000, -1.000000000000000000, -0.0000000000000000000 ) ) ;
#74 = AXIS2_PLACEMENT_3D ( 'NONE', #16, #57, #175 ) ;
#75 = ORIENTED_EDGE ( 'NONE', *, *, #126, .T. ) ;
#76 = CARTESIAN_POINT ( 'NONE',  ( 9.797174393178823700E-016, 0.0000000000000000000, 8.000000000000000000 ) ) ;
#77 = SHAPE_DEFINITION_REPRESENTATION ( #186, #68 ) ;
#78 = AXIS2_PLACEMENT_3D ( 'NONE', #5, #165, #69 ) ;
#79 = CARTESIAN_POINT ( 'NONE',  ( 0.0000000000000000000, 6.500000000000000000, 0.0000000000000000000 ) ) ;
#80 = VECTOR ( 'NONE', #127, 1000.000000000000000 ) ;
#81 = PRODUCT_DEFINITION_CONTEXT ( 'detailed design', #191, 'design' ) ;
#82 = COLOUR_RGB ( '',0.5294117647058823600, 0.5490196078431373000, 0.5490196078431373000 ) ;
#83 = AXIS2_PLACEMENT_3D ( 'NONE', #179, #65, #32 ) ;
#84 = DIRECTION ( 'NONE',  ( 0.0000000000000000000, 0.0000000000000000000, 1.000000000000000000 ) ) ;
#85 = CARTESIAN_POINT ( 'NONE',  ( 0.0000000000000000000, 0.0000000000000000000, 0.0000000000000000000 ) ) ;
#86 = ORIENTED_EDGE ( 'NONE', *, *, #126, .F. ) ;
#87 = FACE_OUTER_BOUND ( 'NONE', #166, .T. ) ;
#88 = DIRECTION ( 'NONE',  ( 0.0000000000000000000, 1.000000000000000000, 0.0000000000000000000 ) ) ;
#89 = SURFACE_SIDE_STYLE ('',( #64 ) ) ;
#90 =( NAMED_UNIT ( * ) SI_UNIT ( $, .STERADIAN. ) SOLID_ANGLE_UNIT ( ) );
#91 =( GEOMETRIC_REPRESENTATION_CONTEXT ( 3 ) GLOBAL_UNCERTAINTY_ASSIGNED_CONTEXT ( ( #112 ) ) GLOBAL_UNIT_ASSIGNED_CONTEXT ( ( #197, #150, #26 ) ) REPRESENTATION_CONTEXT ( 'NONE', 'WORKASPACE' ) );
#92 = ORIENTED_EDGE ( 'NONE', *, *, #123, .F. ) ;
#93 = EDGE_LOOP ( 'NONE', ( #37, #61 ) ) ;
#94 = DIRECTION ( 'NONE',  ( 0.0000000000000000000, 1.000000000000000000, 0.0000000000000000000 ) ) ;
#95 = ORIENTED_EDGE ( 'NONE', *, *, #199, .F. ) ;
#96 = PLANE ( 'NONE',  #213 ) ;
#97 = FILL_AREA_STYLE_COLOUR ( '', #53 ) ;
#98 = AXIS2_PLACEMENT_3D ( 'NONE', #167, #88, #180 ) ;
#99 = CYLINDRICAL_SURFACE ( 'NONE', #74, 6.499999999999999100 ) ;
#100 = DIRECTION ( 'NONE',  ( 0.0000000000000000000, 0.0000000000000000000, 1.000000000000000000 ) ) ;
#101 = MECHANICAL_DESIGN_GEOMETRIC_PRESENTATION_REPRESENTATION (  '', ( #194 ), #148 ) ;
#102 = CARTESIAN_POINT ( 'NONE',  ( 0.0000000000000000000, 0.0000000000000000000, 0.0000000000000000000 ) ) ;
#103 = DIRECTION ( 'NONE',  ( 0.0000000000000000000, 0.0000000000000000000, 1.000000000000000000 ) ) ;
#104 = EDGE_CURVE ( 'NONE', #170, #169, #107, .T. ) ;
#105 = CARTESIAN_POINT ( 'NONE',  ( 7.960204194457792500E-016, 6.500000000000000000, 6.499999999999999100 ) ) ;
#106 = FACE_OUTER_BOUND ( 'NONE', #93, .T. ) ;
#107 = LINE ( 'NONE', #132, #8 ) ;
#108 = CIRCLE ( 'NONE', #98, 8.000000000000000000 ) ;
#109 = UNCERTAINTY_MEASURE_WITH_UNIT (LENGTH_MEASURE( 1.000000000000000100E-005 ), #184, 'distance_accuracy_value', 'NONE');
#110 = PRODUCT_CONTEXT ( 'NONE', #212, 'mechanical' ) ;
#111 =( NAMED_UNIT ( * ) PLANE_ANGLE_UNIT ( ) SI_UNIT ( $, .RADIAN. ) );
#112 = UNCERTAINTY_MEASURE_WITH_UNIT (LENGTH_MEASURE( 1.000000000000000100E-005 ), #197, 'distance_accuracy_value', 'NONE');
#113 = DIRECTION ( 'NONE',  ( 0.0000000000000000000, 1.000000000000000000, 0.0000000000000000000 ) ) ;
#114 = AXIS2_PLACEMENT_3D ( 'NONE', #79, #94, #120 ) ;
#115 = DIRECTION ( 'NONE',  ( 0.0000000000000000000, 1.000000000000000000, 0.0000000000000000000 ) ) ;
#116 = FACE_OUTER_BOUND ( 'NONE', #137, .T. ) ;
#117 = CARTESIAN_POINT ( 'NONE',  ( 9.797174393178823700E-016, 6.500000000000000000, 8.000000000000000000 ) ) ;
#118 = CARTESIAN_POINT ( 'NONE',  ( 0.0000000000000000000, 6.500000000000000000, -6.499999999999999100 ) ) ;
#119 =( LENGTH_UNIT ( ) NAMED_UNIT ( * ) SI_UNIT ( .MILLI., .METRE. ) );
#120 = DIRECTION ( 'NONE',  ( 0.0000000000000000000, -0.0000000000000000000, 1.000000000000000000 ) ) ;
#121 = ORIENTED_EDGE ( 'NONE', *, *, #49, .T. ) ;
#122 = SURFACE_STYLE_FILL_AREA ( #207 ) ;
#123 = EDGE_CURVE ( 'NONE', #24, #169, #155, .T. ) ;
#124 = ORIENTED_EDGE ( 'NONE', *, *, #168, .F. ) ;
#125 = PRESENTATION_STYLE_ASSIGNMENT (( #33 ) ) ;
#126 = EDGE_CURVE ( 'NONE', #169, #24, #145, .T. ) ;
#127 = DIRECTION ( 'NONE',  ( -0.0000000000000000000, -1.000000000000000000, -0.0000000000000000000 ) ) ;
#128 = AXIS2_PLACEMENT_3D ( 'NONE', #48, #47, #176 ) ;
#129 = CARTESIAN_POINT ( 'NONE',  ( 7.960204194457792500E-016, 6.500000000000000000, 6.499999999999999100 ) ) ;
#130 = ORIENTED_EDGE ( 'NONE', *, *, #138, .T. ) ;
#131 = VERTEX_POINT ( 'NONE', #76 ) ;
#132 = CARTESIAN_POINT ( 'NONE',  ( 0.0000000000000000000, 6.500000000000000000, -6.499999999999999100 ) ) ;
#133 = DIRECTION ( 'NONE',  ( 0.0000000000000000000, 0.0000000000000000000, 1.000000000000000000 ) ) ;
#134 = DIRECTION ( 'NONE',  ( 0.0000000000000000000, 1.000000000000000000, 0.0000000000000000000 ) ) ;
#135 = AXIS2_PLACEMENT_3D ( 'NONE', #195, #60, #163 ) ;
#136 = ORIENTED_EDGE ( 'NONE', *, *, #104, .T. ) ;
#137 = EDGE_LOOP ( 'NONE', ( #95, #202, #2, #67 ) ) ;
#138 = EDGE_CURVE ( 'NONE', #196, #24, #211, .T. ) ;
#139 =( GEOMETRIC_REPRESENTATION_CONTEXT ( 3 ) GLOBAL_UNCERTAINTY_ASSIGNED_CONTEXT ( ( #31 ) ) GLOBAL_UNIT_ASSIGNED_CONTEXT ( ( #119, #111, #90 ) ) REPRESENTATION_CONTEXT ( 'NONE', 'WORKASPACE' ) );
#140 = ORIENTED_EDGE ( 'NONE', *, *, #168, .T. ) ;
#141 = CYLINDRICAL_SURFACE ( 'NONE', #78, 8.000000000000000000 ) ;
#142 = CARTESIAN_POINT ( 'NONE',  ( 0.0000000000000000000, 0.0000000000000000000, 0.0000000000000000000 ) ) ;
#143 = CARTESIAN_POINT ( 'NONE',  ( 7.960204194457792500E-016, 0.0000000000000000000, 6.499999999999999100 ) ) ;
#144 = CARTESIAN_POINT ( 'NONE',  ( 0.0000000000000000000, 6.500000000000000000, 0.0000000000000000000 ) ) ;
#145 = CIRCLE ( 'NONE', #13, 6.499999999999999100 ) ;
#146 = LINE ( 'NONE', #117, #187 ) ;
#147 = CIRCLE ( 'NONE', #203, 8.000000000000000000 ) ;
#148 =( GEOMETRIC_REPRESENTATION_CONTEXT ( 3 ) GLOBAL_UNCERTAINTY_ASSIGNED_CONTEXT ( ( #109 ) ) GLOBAL_UNIT_ASSIGNED_CONTEXT ( ( #184, #183, #27 ) ) REPRESENTATION_CONTEXT ( 'NONE', 'WORKASPACE' ) );
#149 = CARTESIAN_POINT ( 'NONE',  ( 0.0000000000000000000, 0.0000000000000000000, -8.000000000000000000 ) ) ;
#150 =( NAMED_UNIT ( * ) PLANE_ANGLE_UNIT ( ) SI_UNIT ( $, .RADIAN. ) );
#151 = STYLED_ITEM ( 'NONE', ( #125 ), #44 ) ;
#152 = ORIENTED_EDGE ( 'NONE', *, *, #174, .T. ) ;
#153 = MECHANICAL_DESIGN_GEOMETRIC_PRESENTATION_REPRESENTATION (  '', ( #151 ), #139 ) ;
#154 = EDGE_CURVE ( 'NONE', #59, #18, #46, .T. ) ;
#155 = CIRCLE ( 'NONE', #135, 6.499999999999999100 ) ;
#156 = ADVANCED_FACE ( 'NONE', ( #3 ), #99, .F. ) ;
#157 = DIRECTION ( 'NONE',  ( 0.0000000000000000000, -0.0000000000000000000, 1.000000000000000000 ) ) ;
#158 = ADVANCED_FACE ( 'NONE', ( #116 ), #51, .T. ) ;
#159 = AXIS2_PLACEMENT_3D ( 'NONE', #206, #19, #1 ) ;
#160 = ADVANCED_FACE ( 'NONE', ( #198, #66 ), #43, .T. ) ;
#161 = CARTESIAN_POINT ( 'NONE',  ( 0.0000000000000000000, 6.500000000000000000, -8.000000000000000000 ) ) ;
#162 = PRESENTATION_LAYER_ASSIGNMENT (  '', '', ( #151 ) ) ;
#163 = DIRECTION ( 'NONE',  ( 0.0000000000000000000, 0.0000000000000000000, 1.000000000000000000 ) ) ;
#164 = AXIS2_PLACEMENT_3D ( 'NONE', #142, #22, #103 ) ;
#165 = DIRECTION ( 'NONE',  ( -0.0000000000000000000, -1.000000000000000000, -0.0000000000000000000 ) ) ;
#166 = EDGE_LOOP ( 'NONE', ( #140, #130, #86, #11 ) ) ;
#167 = CARTESIAN_POINT ( 'NONE',  ( 0.0000000000000000000, 6.500000000000000000, 0.0000000000000000000 ) ) ;
#168 = EDGE_CURVE ( 'NONE', #170, #196, #36, .T. ) ;
#169 = VERTEX_POINT ( 'NONE', #200 ) ;
#170 = VERTEX_POINT ( 'NONE', #118 ) ;
#171 = ADVANCED_FACE ( 'NONE', ( #50 ), #141, .T. ) ;
#172 = EDGE_LOOP ( 'NONE', ( #56, #121, #136, #92 ) ) ;
#173 = CARTESIAN_POINT ( 'NONE',  ( 0.0000000000000000000, 6.500000000000000000, -8.000000000000000000 ) ) ;
#174 = EDGE_CURVE ( 'NONE', #59, #190, #147, .T. ) ;
#175 = DIRECTION ( 'NONE',  ( 0.0000000000000000000, 0.0000000000000000000, -1.000000000000000000 ) ) ;
#176 = DIRECTION ( 'NONE',  ( 0.0000000000000000000, 0.0000000000000000000, 1.000000000000000000 ) ) ;
#177 = ORIENTED_EDGE ( 'NONE', *, *, #201, .F. ) ;
#178 = CARTESIAN_POINT ( 'NONE',  ( 0.0000000000000000000, 6.500000000000000000, 0.0000000000000000000 ) ) ;
#179 = CARTESIAN_POINT ( 'NONE',  ( 0.0000000000000000000, 6.500000000000000000, 0.0000000000000000000 ) ) ;
#180 = DIRECTION ( 'NONE',  ( 0.0000000000000000000, 0.0000000000000000000, 1.000000000000000000 ) ) ;
#181 = VECTOR ( 'NONE', #4, 1000.000000000000000 ) ;
#182 = AXIS2_PLACEMENT_3D ( 'NONE', #85, #84, #28 ) ;
#183 =( NAMED_UNIT ( * ) PLANE_ANGLE_UNIT ( ) SI_UNIT ( $, .RADIAN. ) );
#184 =( LENGTH_UNIT ( ) NAMED_UNIT ( * ) SI_UNIT ( .MILLI., .METRE. ) );
#185 = ORIENTED_EDGE ( 'NONE', *, *, #154, .F. ) ;
#186 = PRODUCT_DEFINITION_SHAPE ( 'NONE', 'NONE',  #23 ) ;
#187 = VECTOR ( 'NONE', #20, 1000.000000000000000 ) ;
#188 = FILL_AREA_STYLE_COLOUR ( '', #82 ) ;
#189 = EDGE_LOOP ( 'NONE', ( #124, #17 ) ) ;
#190 = VERTEX_POINT ( 'NONE', #9 ) ;
#191 = APPLICATION_CONTEXT ( 'automotive_design' ) ;
#192 = SURFACE_STYLE_USAGE ( .BOTH. , #29 ) ;
#193 = APPLICATION_PROTOCOL_DEFINITION ( 'draft international standard', 'automotive_design', 1998, #191 ) ;
#194 = STYLED_ITEM ( 'NONE', ( #208 ), #68 ) ;
#195 = CARTESIAN_POINT ( 'NONE',  ( 0.0000000000000000000, 0.0000000000000000000, 0.0000000000000000000 ) ) ;
#196 = VERTEX_POINT ( 'NONE', #129 ) ;
#197 =( LENGTH_UNIT ( ) NAMED_UNIT ( * ) SI_UNIT ( .MILLI., .METRE. ) );
#198 = FACE_OUTER_BOUND ( 'NONE', #30, .T. ) ;
#199 = EDGE_CURVE ( 'NONE', #190, #131, #146, .T. ) ;
#200 = CARTESIAN_POINT ( 'NONE',  ( 0.0000000000000000000, 0.0000000000000000000, -6.499999999999999100 ) ) ;
#201 = EDGE_CURVE ( 'NONE', #190, #59, #108, .T. ) ;
#202 = ORIENTED_EDGE ( 'NONE', *, *, #174, .F. ) ;
#203 = AXIS2_PLACEMENT_3D ( 'NONE', #21, #113, #41 ) ;
#204 = ORIENTED_EDGE ( 'NONE', *, *, #123, .T. ) ;
#205 = ADVANCED_FACE ( 'NONE', ( #87 ), #210, .F. ) ;
#206 = CARTESIAN_POINT ( 'NONE',  ( 0.0000000000000000000, 0.0000000000000000000, 0.0000000000000000000 ) ) ;
#207 = FILL_AREA_STYLE ('',( #188 ) ) ;
#208 = PRESENTATION_STYLE_ASSIGNMENT (( #192 ) ) ;
#209 = FILL_AREA_STYLE ('',( #97 ) ) ;
#210 = CYLINDRICAL_SURFACE ( 'NONE', #63, 6.499999999999999100 ) ;
#211 = LINE ( 'NONE', #105, #80 ) ;
#212 = APPLICATION_CONTEXT ( 'automotive_design' ) ;
#213 = AXIS2_PLACEMENT_3D ( 'NONE', #102, #12, #157 ) ;
#214 = PRODUCT ( '000043-02-008_Entretoise de pivot', '000043-02-008_Entretoise de pivot', '', ( #110 ) ) ;
ENDSEC;
END-ISO-10303-21;
