ISO-10303-21;
HEADER;
FILE_DESCRIPTION((''),'2;1');
FILE_NAME('RONDELLE_AMORTISSEUR_MERCURY','2022-02-25T09:03:11',('Frilame'),(''),
'CREO PARAMETRIC BY PTC INC, 2018400','CREO PARAMETRIC BY PTC INC, 2018400','');
FILE_SCHEMA(('CONFIG_CONTROL_DESIGN','GEOMETRIC_VALIDATION_PROPERTIES_MIM'));
ENDSEC;
DATA;
#24=CARTESIAN_POINT('',(0.E0,0.E0,0.E0));
#25=DIRECTION('',(0.E0,0.E0,-1.E0));
#26=DIRECTION('',(0.E0,-1.E0,0.E0));
#27=AXIS2_PLACEMENT_3D('',#24,#25,#26);
#29=CARTESIAN_POINT('',(0.E0,0.E0,0.E0));
#30=DIRECTION('',(0.E0,0.E0,1.E0));
#31=DIRECTION('',(0.E0,-1.E0,0.E0));
#32=AXIS2_PLACEMENT_3D('',#29,#30,#31);
#34=CARTESIAN_POINT('',(0.E0,0.E0,-4.E1));
#35=DIRECTION('',(0.E0,0.E0,-1.E0));
#36=DIRECTION('',(0.E0,-1.E0,0.E0));
#37=AXIS2_PLACEMENT_3D('',#34,#35,#36);
#39=DIRECTION('',(0.E0,0.E0,1.E0));
#40=VECTOR('',#39,4.E1);
#41=CARTESIAN_POINT('',(0.E0,-4.E1,-4.E1));
#42=LINE('',#41,#40);
#43=CARTESIAN_POINT('',(0.E0,0.E0,-4.E1));
#44=DIRECTION('',(0.E0,0.E0,1.E0));
#45=DIRECTION('',(0.E0,-1.E0,0.E0));
#46=AXIS2_PLACEMENT_3D('',#43,#44,#45);
#48=DIRECTION('',(0.E0,0.E0,1.E0));
#49=VECTOR('',#48,4.E1);
#50=CARTESIAN_POINT('',(0.E0,4.E1,-4.E1));
#51=LINE('',#50,#49);
#52=CARTESIAN_POINT('',(0.E0,0.E0,-4.E1));
#53=DIRECTION('',(0.E0,0.E0,-1.E0));
#54=DIRECTION('',(0.E0,-1.E0,0.E0));
#55=AXIS2_PLACEMENT_3D('',#52,#53,#54);
#57=CARTESIAN_POINT('',(0.E0,0.E0,-4.E1));
#58=DIRECTION('',(0.E0,0.E0,1.E0));
#59=DIRECTION('',(0.E0,-1.E0,0.E0));
#60=AXIS2_PLACEMENT_3D('',#57,#58,#59);
#62=CARTESIAN_POINT('',(0.E0,0.E0,-5.5E1));
#63=DIRECTION('',(0.E0,0.E0,-1.E0));
#64=DIRECTION('',(0.E0,-1.E0,0.E0));
#65=AXIS2_PLACEMENT_3D('',#62,#63,#64);
#67=DIRECTION('',(0.E0,0.E0,1.E0));
#68=VECTOR('',#67,1.5E1);
#69=CARTESIAN_POINT('',(0.E0,-5.E1,-5.5E1));
#70=LINE('',#69,#68);
#71=CARTESIAN_POINT('',(0.E0,0.E0,-5.5E1));
#72=DIRECTION('',(0.E0,0.E0,1.E0));
#73=DIRECTION('',(0.E0,-1.E0,0.E0));
#74=AXIS2_PLACEMENT_3D('',#71,#72,#73);
#76=DIRECTION('',(0.E0,0.E0,1.E0));
#77=VECTOR('',#76,1.5E1);
#78=CARTESIAN_POINT('',(0.E0,5.E1,-5.5E1));
#79=LINE('',#78,#77);
#80=CARTESIAN_POINT('',(0.E0,0.E0,-5.5E1));
#81=DIRECTION('',(0.E0,0.E0,-1.E0));
#82=DIRECTION('',(0.E0,-1.E0,0.E0));
#83=AXIS2_PLACEMENT_3D('',#80,#81,#82);
#85=CARTESIAN_POINT('',(0.E0,0.E0,-5.5E1));
#86=DIRECTION('',(0.E0,0.E0,1.E0));
#87=DIRECTION('',(0.E0,-1.E0,0.E0));
#88=AXIS2_PLACEMENT_3D('',#85,#86,#87);
#90=CARTESIAN_POINT('',(0.E0,0.E0,-2.5E1));
#91=DIRECTION('',(0.E0,0.E0,-1.E0));
#92=DIRECTION('',(0.E0,-1.E0,0.E0));
#93=AXIS2_PLACEMENT_3D('',#90,#91,#92);
#95=DIRECTION('',(0.E0,0.E0,-1.E0));
#96=VECTOR('',#95,3.E1);
#97=CARTESIAN_POINT('',(0.E0,-6.85E1,-2.5E1));
#98=LINE('',#97,#96);
#99=CARTESIAN_POINT('',(0.E0,0.E0,-2.5E1));
#100=DIRECTION('',(0.E0,0.E0,1.E0));
#101=DIRECTION('',(0.E0,-1.E0,0.E0));
#102=AXIS2_PLACEMENT_3D('',#99,#100,#101);
#104=DIRECTION('',(0.E0,0.E0,-1.E0));
#105=VECTOR('',#104,3.E1);
#106=CARTESIAN_POINT('',(-1.014003695824E-14,6.85E1,-2.5E1));
#107=LINE('',#106,#105);
#108=CARTESIAN_POINT('',(0.E0,0.E0,-2.5E1));
#109=DIRECTION('',(0.E0,0.E0,-1.E0));
#110=DIRECTION('',(0.E0,-1.E0,0.E0));
#111=AXIS2_PLACEMENT_3D('',#108,#109,#110);
#113=CARTESIAN_POINT('',(0.E0,0.E0,-2.5E1));
#114=DIRECTION('',(0.E0,0.E0,1.E0));
#115=DIRECTION('',(0.E0,-1.E0,0.E0));
#116=AXIS2_PLACEMENT_3D('',#113,#114,#115);
#118=CARTESIAN_POINT('',(0.E0,0.E0,0.E0));
#119=DIRECTION('',(0.E0,0.E0,-1.E0));
#120=DIRECTION('',(0.E0,-1.E0,0.E0));
#121=AXIS2_PLACEMENT_3D('',#118,#119,#120);
#123=DIRECTION('',(0.E0,0.E0,-1.E0));
#124=VECTOR('',#123,2.5E1);
#125=CARTESIAN_POINT('',(0.E0,-5.E1,0.E0));
#126=LINE('',#125,#124);
#127=CARTESIAN_POINT('',(0.E0,0.E0,0.E0));
#128=DIRECTION('',(0.E0,0.E0,1.E0));
#129=DIRECTION('',(0.E0,-1.E0,0.E0));
#130=AXIS2_PLACEMENT_3D('',#127,#128,#129);
#132=DIRECTION('',(0.E0,0.E0,-1.E0));
#133=VECTOR('',#132,2.5E1);
#134=CARTESIAN_POINT('',(0.E0,5.E1,0.E0));
#135=LINE('',#134,#133);
#136=CARTESIAN_POINT('',(0.E0,-5.E1,0.E0));
#137=CARTESIAN_POINT('',(0.E0,-5.E1,-2.5E1));
#138=VERTEX_POINT('',#136);
#139=VERTEX_POINT('',#137);
#140=CARTESIAN_POINT('',(0.E0,-6.85E1,-2.5E1));
#141=CARTESIAN_POINT('',(0.E0,-6.85E1,-5.5E1));
#142=VERTEX_POINT('',#140);
#143=VERTEX_POINT('',#141);
#144=CARTESIAN_POINT('',(0.E0,-5.E1,-5.5E1));
#145=CARTESIAN_POINT('',(0.E0,-5.E1,-4.E1));
#146=VERTEX_POINT('',#144);
#147=VERTEX_POINT('',#145);
#148=CARTESIAN_POINT('',(0.E0,-4.E1,-4.E1));
#149=CARTESIAN_POINT('',(0.E0,-4.E1,0.E0));
#150=VERTEX_POINT('',#148);
#151=VERTEX_POINT('',#149);
#152=CARTESIAN_POINT('',(0.E0,5.E1,0.E0));
#153=CARTESIAN_POINT('',(0.E0,5.E1,-2.5E1));
#154=VERTEX_POINT('',#152);
#155=VERTEX_POINT('',#153);
#156=CARTESIAN_POINT('',(-1.014003695824E-14,6.85E1,-2.5E1));
#157=CARTESIAN_POINT('',(-1.014003695824E-14,6.85E1,-5.5E1));
#158=VERTEX_POINT('',#156);
#159=VERTEX_POINT('',#157);
#160=CARTESIAN_POINT('',(0.E0,5.E1,-5.5E1));
#161=CARTESIAN_POINT('',(0.E0,5.E1,-4.E1));
#162=VERTEX_POINT('',#160);
#163=VERTEX_POINT('',#161);
#164=CARTESIAN_POINT('',(0.E0,4.E1,-4.E1));
#165=CARTESIAN_POINT('',(0.E0,4.E1,0.E0));
#166=VERTEX_POINT('',#164);
#167=VERTEX_POINT('',#165);
#168=CARTESIAN_POINT('',(0.E0,0.E0,0.E0));
#169=DIRECTION('',(0.E0,0.E0,-1.E0));
#170=DIRECTION('',(0.E0,-1.E0,0.E0));
#171=AXIS2_PLACEMENT_3D('',#168,#169,#170);
#172=PLANE('',#171);
#174=ORIENTED_EDGE('',*,*,#173,.F.);
#176=ORIENTED_EDGE('',*,*,#175,.T.);
#177=EDGE_LOOP('',(#174,#176));
#178=FACE_OUTER_BOUND('',#177,.F.);
#180=ORIENTED_EDGE('',*,*,#179,.F.);
#182=ORIENTED_EDGE('',*,*,#181,.T.);
#183=EDGE_LOOP('',(#180,#182));
#184=FACE_BOUND('',#183,.F.);
#185=ADVANCED_FACE('',(#178,#184),#172,.F.);
#186=CARTESIAN_POINT('',(0.E0,0.E0,2.75E0));
#187=DIRECTION('',(0.E0,0.E0,-1.E0));
#188=DIRECTION('',(0.E0,-1.E0,0.E0));
#189=AXIS2_PLACEMENT_3D('',#186,#187,#188);
#190=CYLINDRICAL_SURFACE('',#189,4.E1);
#192=ORIENTED_EDGE('',*,*,#191,.T.);
#193=ORIENTED_EDGE('',*,*,#179,.T.);
#195=ORIENTED_EDGE('',*,*,#194,.F.);
#197=ORIENTED_EDGE('',*,*,#196,.F.);
#198=EDGE_LOOP('',(#192,#193,#195,#197));
#199=FACE_OUTER_BOUND('',#198,.F.);
#200=ADVANCED_FACE('',(#199),#190,.F.);
#201=CARTESIAN_POINT('',(0.E0,0.E0,2.75E0));
#202=DIRECTION('',(0.E0,0.E0,-1.E0));
#203=DIRECTION('',(0.E0,-1.E0,0.E0));
#204=AXIS2_PLACEMENT_3D('',#201,#202,#203);
#205=CYLINDRICAL_SURFACE('',#204,4.E1);
#206=ORIENTED_EDGE('',*,*,#191,.F.);
#208=ORIENTED_EDGE('',*,*,#207,.T.);
#209=ORIENTED_EDGE('',*,*,#194,.T.);
#210=ORIENTED_EDGE('',*,*,#181,.F.);
#211=EDGE_LOOP('',(#206,#208,#209,#210));
#212=FACE_OUTER_BOUND('',#211,.F.);
#213=ADVANCED_FACE('',(#212),#205,.F.);
#214=CARTESIAN_POINT('',(0.E0,0.E0,-4.E1));
#215=DIRECTION('',(0.E0,0.E0,-1.E0));
#216=DIRECTION('',(0.E0,-1.E0,0.E0));
#217=AXIS2_PLACEMENT_3D('',#214,#215,#216);
#218=PLANE('',#217);
#220=ORIENTED_EDGE('',*,*,#219,.F.);
#222=ORIENTED_EDGE('',*,*,#221,.T.);
#223=EDGE_LOOP('',(#220,#222));
#224=FACE_OUTER_BOUND('',#223,.F.);
#225=ORIENTED_EDGE('',*,*,#207,.F.);
#226=ORIENTED_EDGE('',*,*,#196,.T.);
#227=EDGE_LOOP('',(#225,#226));
#228=FACE_BOUND('',#227,.F.);
#229=ADVANCED_FACE('',(#224,#228),#218,.T.);
#230=CARTESIAN_POINT('',(0.E0,0.E0,2.75E0));
#231=DIRECTION('',(0.E0,0.E0,-1.E0));
#232=DIRECTION('',(0.E0,-1.E0,0.E0));
#233=AXIS2_PLACEMENT_3D('',#230,#231,#232);
#234=CYLINDRICAL_SURFACE('',#233,5.E1);
#236=ORIENTED_EDGE('',*,*,#235,.T.);
#237=ORIENTED_EDGE('',*,*,#219,.T.);
#239=ORIENTED_EDGE('',*,*,#238,.F.);
#241=ORIENTED_EDGE('',*,*,#240,.F.);
#242=EDGE_LOOP('',(#236,#237,#239,#241));
#243=FACE_OUTER_BOUND('',#242,.F.);
#244=ADVANCED_FACE('',(#243),#234,.F.);
#245=CARTESIAN_POINT('',(0.E0,0.E0,2.75E0));
#246=DIRECTION('',(0.E0,0.E0,-1.E0));
#247=DIRECTION('',(0.E0,-1.E0,0.E0));
#248=AXIS2_PLACEMENT_3D('',#245,#246,#247);
#249=CYLINDRICAL_SURFACE('',#248,5.E1);
#250=ORIENTED_EDGE('',*,*,#235,.F.);
#252=ORIENTED_EDGE('',*,*,#251,.T.);
#253=ORIENTED_EDGE('',*,*,#238,.T.);
#254=ORIENTED_EDGE('',*,*,#221,.F.);
#255=EDGE_LOOP('',(#250,#252,#253,#254));
#256=FACE_OUTER_BOUND('',#255,.F.);
#257=ADVANCED_FACE('',(#256),#249,.F.);
#258=CARTESIAN_POINT('',(0.E0,0.E0,-5.5E1));
#259=DIRECTION('',(0.E0,0.E0,-1.E0));
#260=DIRECTION('',(0.E0,-1.E0,0.E0));
#261=AXIS2_PLACEMENT_3D('',#258,#259,#260);
#262=PLANE('',#261);
#264=ORIENTED_EDGE('',*,*,#263,.F.);
#266=ORIENTED_EDGE('',*,*,#265,.T.);
#267=EDGE_LOOP('',(#264,#266));
#268=FACE_OUTER_BOUND('',#267,.F.);
#269=ORIENTED_EDGE('',*,*,#251,.F.);
#270=ORIENTED_EDGE('',*,*,#240,.T.);
#271=EDGE_LOOP('',(#269,#270));
#272=FACE_BOUND('',#271,.F.);
#273=ADVANCED_FACE('',(#268,#272),#262,.T.);
#274=CARTESIAN_POINT('',(0.E0,0.E0,2.75E0));
#275=DIRECTION('',(0.E0,0.E0,-1.E0));
#276=DIRECTION('',(0.E0,-1.E0,0.E0));
#277=AXIS2_PLACEMENT_3D('',#274,#275,#276);
#278=CYLINDRICAL_SURFACE('',#277,6.85E1);
#280=ORIENTED_EDGE('',*,*,#279,.T.);
#281=ORIENTED_EDGE('',*,*,#263,.T.);
#283=ORIENTED_EDGE('',*,*,#282,.F.);
#285=ORIENTED_EDGE('',*,*,#284,.F.);
#286=EDGE_LOOP('',(#280,#281,#283,#285));
#287=FACE_OUTER_BOUND('',#286,.F.);
#288=ADVANCED_FACE('',(#287),#278,.T.);
#289=CARTESIAN_POINT('',(0.E0,0.E0,2.75E0));
#290=DIRECTION('',(0.E0,0.E0,-1.E0));
#291=DIRECTION('',(0.E0,-1.E0,0.E0));
#292=AXIS2_PLACEMENT_3D('',#289,#290,#291);
#293=CYLINDRICAL_SURFACE('',#292,6.85E1);
#294=ORIENTED_EDGE('',*,*,#279,.F.);
#296=ORIENTED_EDGE('',*,*,#295,.T.);
#297=ORIENTED_EDGE('',*,*,#282,.T.);
#298=ORIENTED_EDGE('',*,*,#265,.F.);
#299=EDGE_LOOP('',(#294,#296,#297,#298));
#300=FACE_OUTER_BOUND('',#299,.F.);
#301=ADVANCED_FACE('',(#300),#293,.T.);
#302=CARTESIAN_POINT('',(0.E0,0.E0,-2.5E1));
#303=DIRECTION('',(0.E0,0.E0,-1.E0));
#304=DIRECTION('',(0.E0,-1.E0,0.E0));
#305=AXIS2_PLACEMENT_3D('',#302,#303,#304);
#306=PLANE('',#305);
#307=ORIENTED_EDGE('',*,*,#295,.F.);
#308=ORIENTED_EDGE('',*,*,#284,.T.);
#309=EDGE_LOOP('',(#307,#308));
#310=FACE_OUTER_BOUND('',#309,.F.);
#312=ORIENTED_EDGE('',*,*,#311,.F.);
#314=ORIENTED_EDGE('',*,*,#313,.T.);
#315=EDGE_LOOP('',(#312,#314));
#316=FACE_BOUND('',#315,.F.);
#317=ADVANCED_FACE('',(#310,#316),#306,.F.);
#318=CARTESIAN_POINT('',(0.E0,0.E0,2.75E0));
#319=DIRECTION('',(0.E0,0.E0,-1.E0));
#320=DIRECTION('',(0.E0,-1.E0,0.E0));
#321=AXIS2_PLACEMENT_3D('',#318,#319,#320);
#322=CYLINDRICAL_SURFACE('',#321,5.E1);
#324=ORIENTED_EDGE('',*,*,#323,.T.);
#325=ORIENTED_EDGE('',*,*,#311,.T.);
#327=ORIENTED_EDGE('',*,*,#326,.F.);
#328=ORIENTED_EDGE('',*,*,#175,.F.);
#329=EDGE_LOOP('',(#324,#325,#327,#328));
#330=FACE_OUTER_BOUND('',#329,.F.);
#331=ADVANCED_FACE('',(#330),#322,.T.);
#332=CARTESIAN_POINT('',(0.E0,0.E0,2.75E0));
#333=DIRECTION('',(0.E0,0.E0,-1.E0));
#334=DIRECTION('',(0.E0,-1.E0,0.E0));
#335=AXIS2_PLACEMENT_3D('',#332,#333,#334);
#336=CYLINDRICAL_SURFACE('',#335,5.E1);
#337=ORIENTED_EDGE('',*,*,#323,.F.);
#338=ORIENTED_EDGE('',*,*,#173,.T.);
#339=ORIENTED_EDGE('',*,*,#326,.T.);
#340=ORIENTED_EDGE('',*,*,#313,.F.);
#341=EDGE_LOOP('',(#337,#338,#339,#340));
#342=FACE_OUTER_BOUND('',#341,.F.);
#343=ADVANCED_FACE('',(#342),#336,.T.);
#344=CLOSED_SHELL('',(#185,#200,#213,#229,#244,#257,#273,#288,#301,#317,#331,
#343));
#345=MANIFOLD_SOLID_BREP('',#344);
#346=CARTESIAN_POINT('',(0.E0,0.E0,0.E0));
#347=DIRECTION('',(0.E0,0.E0,1.E0));
#348=DIRECTION('',(1.E0,0.E0,0.E0));
#349=AXIS2_PLACEMENT_3D('CS0',#346,#347,#348);
#350=DRAUGHTING_PRE_DEFINED_CURVE_FONT('continuous');
#351=CURVE_STYLE('',#350,POSITIVE_LENGTH_MEASURE(2.E-2),#9);
#352=PRESENTATION_STYLE_ASSIGNMENT((#351));
#353=STYLED_ITEM('',(#352),#349);
#354=DIRECTION('',(0.E0,0.E0,-1.E0));
#355=VECTOR('',#354,5.5E1);
#356=CARTESIAN_POINT('',(0.E0,0.E0,0.E0));
#357=LINE('',#356,#355);
#359=CURVE_STYLE('',#350,POSITIVE_LENGTH_MEASURE(2.E-2),#1);
#360=PRESENTATION_STYLE_ASSIGNMENT((#359));
#361=STYLED_ITEM('',(#360),#358);
#364=DIMENSIONAL_EXPONENTS(0.E0,0.E0,0.E0,0.E0,0.E0,0.E0,0.E0);
#366=PLANE_ANGLE_MEASURE_WITH_UNIT(PLANE_ANGLE_MEASURE(1.745329251994E-2),#365);
#367=(CONVERSION_BASED_UNIT('DEGREE',#366)NAMED_UNIT(*)PLANE_ANGLE_UNIT());
#369=UNCERTAINTY_MEASURE_WITH_UNIT(LENGTH_MEASURE(1.E-2),#363,'closure',
'Maximum model space distance between geometric entities at asserted connectivities');
#370=(GEOMETRIC_REPRESENTATION_CONTEXT(3)GLOBAL_UNCERTAINTY_ASSIGNED_CONTEXT((
#369))GLOBAL_UNIT_ASSIGNED_CONTEXT((#363,#367,#368))REPRESENTATION_CONTEXT
('ID1','3'));
#362=GEOMETRIC_SET('',(#358));
#374=SHAPE_REPRESENTATION_RELATIONSHIP('','',#373,#371);
#375=SHAPE_REPRESENTATION_RELATIONSHIP('','',#373,#372);
#376=MECHANICAL_DESIGN_GEOMETRIC_PRESENTATION_REPRESENTATION('',(#353,#361),
#370);
#377=APPLICATION_CONTEXT(
'CONFIGURATION CONTROLLED 3D DESIGNS OF MECHANICAL PARTS AND ASSEMBLIES');
#378=APPLICATION_PROTOCOL_DEFINITION('international standard',
'ccd_cla_gvp_ast_asd',1995,#377);
#379=DESIGN_CONTEXT('',#377,'design');
#380=MECHANICAL_CONTEXT('',#377,'mechanical');
#381=PRODUCT('RONDELLE_AMORTISSEUR_MERCURY','RONDELLE_AMORTISSEUR_MERCURY',
'NOT SPECIFIED',(#380));
#382=PRODUCT_DEFINITION_FORMATION_WITH_SPECIFIED_SOURCE('1','LAST_VERSION',#381,
.MADE.);
#390=DERIVED_UNIT_ELEMENT(#389,2.E0);
#391=DERIVED_UNIT((#390));
#392=MEASURE_REPRESENTATION_ITEM('surface area measure',AREA_MEASURE(
5.496059267823E4),#391);
#397=DERIVED_UNIT_ELEMENT(#396,3.E0);
#398=DERIVED_UNIT((#397));
#399=MEASURE_REPRESENTATION_ITEM('volume measure',VOLUME_MEASURE(
3.197120303742E5),#398);
#403=CARTESIAN_POINT('centre point',(0.E0,0.E0,-3.292504974574E1));
#408=DERIVED_UNIT_ELEMENT(#407,2.E0);
#409=DERIVED_UNIT((#408));
#410=MEASURE_REPRESENTATION_ITEM('surface area measure',AREA_MEASURE(
5.496059267823E4),#409);
#415=DERIVED_UNIT_ELEMENT(#414,3.E0);
#416=DERIVED_UNIT((#415));
#417=MEASURE_REPRESENTATION_ITEM('volume measure',VOLUME_MEASURE(
3.197120303742E5),#416);
#421=CARTESIAN_POINT('centre point',(0.E0,0.E0,-3.292504974574E1));
#426=PRODUCT_CATEGORY('part','');
#427=PRODUCT_RELATED_PRODUCT_CATEGORY('detail','',(#381));
#428=PRODUCT_CATEGORY_RELATIONSHIP('','',#426,#427);
#429=SECURITY_CLASSIFICATION_LEVEL('unclassified');
#430=SECURITY_CLASSIFICATION('','',#429);
#431=CC_DESIGN_SECURITY_CLASSIFICATION(#430,(#382));
#432=APPROVAL_STATUS('approved');
#433=APPROVAL(#432,'');
#434=CC_DESIGN_APPROVAL(#433,(#430,#382,#383));
#435=CALENDAR_DATE(122,25,2);
#436=COORDINATED_UNIVERSAL_TIME_OFFSET(1,0,.AHEAD.);
#437=LOCAL_TIME(9,3,1.1E1,#436);
#438=DATE_AND_TIME(#435,#437);
#439=APPROVAL_DATE_TIME(#438,#433);
#440=DATE_TIME_ROLE('creation_date');
#441=CC_DESIGN_DATE_AND_TIME_ASSIGNMENT(#438,#440,(#383));
#442=DATE_TIME_ROLE('classification_date');
#443=CC_DESIGN_DATE_AND_TIME_ASSIGNMENT(#438,#442,(#430));
#444=PERSON('UNSPECIFIED','UNSPECIFIED',$,$,$,$);
#445=ORGANIZATION('UNSPECIFIED','UNSPECIFIED','UNSPECIFIED');
#446=PERSON_AND_ORGANIZATION(#444,#445);
#447=APPROVAL_ROLE('approver');
#448=APPROVAL_PERSON_ORGANIZATION(#446,#433,#447);
#449=PERSON_AND_ORGANIZATION_ROLE('creator');
#450=CC_DESIGN_PERSON_AND_ORGANIZATION_ASSIGNMENT(#446,#449,(#382,#383));
#451=PERSON_AND_ORGANIZATION_ROLE('design_supplier');
#452=CC_DESIGN_PERSON_AND_ORGANIZATION_ASSIGNMENT(#446,#451,(#382));
#453=PERSON_AND_ORGANIZATION_ROLE('classification_officer');
#454=CC_DESIGN_PERSON_AND_ORGANIZATION_ASSIGNMENT(#446,#453,(#430));
#455=PERSON_AND_ORGANIZATION_ROLE('design_owner');
#456=CC_DESIGN_PERSON_AND_ORGANIZATION_ASSIGNMENT(#446,#455,(#381));
#1=COLOUR_RGB('',0.E0,0.E0,9.411764705882E-1);
#2=DRAUGHTING_PRE_DEFINED_COLOUR('green');
#3=COLOUR_RGB('',1.1E-2,1.2E-2,1.E0);
#4=COLOUR_RGB('',9.803921568627E-2,6.745098039216E-1,1.E0);
#5=COLOUR_RGB('',4.E-1,2.E-1,8.E-1);
#6=COLOUR_RGB('',4.E-1,1.E0,0.E0);
#7=COLOUR_RGB('',4.1E-1,2.61589E-1,1.12848E-1);
#8=COLOUR_RGB('',5.04854E-1,1.5455E-2,1.5455E-2);
#9=COLOUR_RGB('',6.E-1,4.E-1,2.E-1);
#10=COLOUR_RGB('',6.35294E-1,6.86275E-1,7.4902E-1);
#11=COLOUR_RGB('',6.40777E-1,6.40777E-1,6.40777E-1);
#12=COLOUR_RGB('',6.69062E-1,6.69903E-1,6.55217E-1);
#13=COLOUR_RGB('',7.294117647059E-1,3.568627450980E-1,2.352941176471E-2);
#14=COLOUR_RGB('',8.823529411765E-1,8.823529411765E-1,8.823529411765E-1);
#15=COLOUR_RGB('',9.21569E-1,7.05882E-1,4.70588E-1);
#16=COLOUR_RGB('',9.411764705882E-1,6.745098039216E-1,1.176470588235E-1);
#17=DRAUGHTING_PRE_DEFINED_COLOUR('red');
#18=COLOUR_RGB('',1.E0,2.E-1,1.E0);
#19=COLOUR_RGB('',1.E0,2.666666666667E-1,0.E0);
#20=DRAUGHTING_PRE_DEFINED_COLOUR('yellow');
#21=COLOUR_RGB('',1.E0,1.E0,5.3E-1);
#22=COLOUR_RGB('',1.E0,1.E0,9.49E-1);
#23=DRAUGHTING_PRE_DEFINED_COLOUR('white');
#28=CIRCLE('',#27,4.E1);
#33=CIRCLE('',#32,4.E1);
#38=CIRCLE('',#37,4.E1);
#47=CIRCLE('',#46,4.E1);
#56=CIRCLE('',#55,5.E1);
#61=CIRCLE('',#60,5.E1);
#66=CIRCLE('',#65,5.E1);
#75=CIRCLE('',#74,5.E1);
#84=CIRCLE('',#83,6.85E1);
#89=CIRCLE('',#88,6.85E1);
#94=CIRCLE('',#93,6.85E1);
#103=CIRCLE('',#102,6.85E1);
#112=CIRCLE('',#111,5.E1);
#117=CIRCLE('',#116,5.E1);
#122=CIRCLE('',#121,5.E1);
#131=CIRCLE('',#130,5.E1);
#173=EDGE_CURVE('',#138,#154,#131,.T.);
#175=EDGE_CURVE('',#138,#154,#122,.T.);
#179=EDGE_CURVE('',#151,#167,#28,.T.);
#181=EDGE_CURVE('',#151,#167,#33,.T.);
#191=EDGE_CURVE('',#150,#151,#42,.T.);
#194=EDGE_CURVE('',#166,#167,#51,.T.);
#196=EDGE_CURVE('',#150,#166,#38,.T.);
#207=EDGE_CURVE('',#150,#166,#47,.T.);
#219=EDGE_CURVE('',#147,#163,#56,.T.);
#221=EDGE_CURVE('',#147,#163,#61,.T.);
#235=EDGE_CURVE('',#146,#147,#70,.T.);
#238=EDGE_CURVE('',#162,#163,#79,.T.);
#240=EDGE_CURVE('',#146,#162,#66,.T.);
#251=EDGE_CURVE('',#146,#162,#75,.T.);
#263=EDGE_CURVE('',#143,#159,#84,.T.);
#265=EDGE_CURVE('',#143,#159,#89,.T.);
#279=EDGE_CURVE('',#142,#143,#98,.T.);
#282=EDGE_CURVE('',#158,#159,#107,.T.);
#284=EDGE_CURVE('',#142,#158,#94,.T.);
#295=EDGE_CURVE('',#142,#158,#103,.T.);
#311=EDGE_CURVE('',#139,#155,#112,.T.);
#313=EDGE_CURVE('',#139,#155,#117,.T.);
#323=EDGE_CURVE('',#138,#139,#126,.T.);
#326=EDGE_CURVE('',#154,#155,#135,.T.);
#358=TRIMMED_CURVE('A_1',#357,(PARAMETER_VALUE(0.E0)),(PARAMETER_VALUE(1.E0)),
.T.,.UNSPECIFIED.);
#363=(LENGTH_UNIT()NAMED_UNIT(*)SI_UNIT(.MILLI.,.METRE.));
#365=(NAMED_UNIT(*)PLANE_ANGLE_UNIT()SI_UNIT($,.RADIAN.));
#368=(NAMED_UNIT(*)SI_UNIT($,.STERADIAN.)SOLID_ANGLE_UNIT());
#371=ADVANCED_BREP_SHAPE_REPRESENTATION('',(#345),#370);
#372=GEOMETRICALLY_BOUNDED_SURFACE_SHAPE_REPRESENTATION('',(#362),#370);
#373=SHAPE_REPRESENTATION('',(#349),#370);
#383=PRODUCT_DEFINITION('design','',#382,#379);
#384=PRODUCT_DEFINITION_SHAPE('','SHAPE FOR RONDELLE_AMORTISSEUR_MERCURY.',
#383);
#385=SHAPE_ASPECT('','solid data associated with RONDELLE_AMORTISSEUR_MERCURY',
#384,.F.);
#386=PROPERTY_DEFINITION('',
'shape for solid data with which properties are associated',#385);
#387=SHAPE_REPRESENTATION('',(#345),#370);
#388=SHAPE_DEFINITION_REPRESENTATION(#386,#387);
#389=(LENGTH_UNIT()NAMED_UNIT(*)SI_UNIT(.MILLI.,.METRE.));
#393=PROPERTY_DEFINITION('geometric validation property',
'area of RONDELLE_AMORTISSEUR_MERCURY',#385);
#394=REPRESENTATION('surface area',(#392),#370);
#395=PROPERTY_DEFINITION_REPRESENTATION(#393,#394);
#396=(LENGTH_UNIT()NAMED_UNIT(*)SI_UNIT(.MILLI.,.METRE.));
#400=PROPERTY_DEFINITION('geometric validation property',
'volume of RONDELLE_AMORTISSEUR_MERCURY',#385);
#401=REPRESENTATION('volume',(#399),#370);
#402=PROPERTY_DEFINITION_REPRESENTATION(#400,#401);
#404=PROPERTY_DEFINITION('geometric validation property',
'centroid of RONDELLE_AMORTISSEUR_MERCURY',#385);
#405=REPRESENTATION('centroid',(#403),#370);
#406=PROPERTY_DEFINITION_REPRESENTATION(#404,#405);
#407=(LENGTH_UNIT()NAMED_UNIT(*)SI_UNIT(.MILLI.,.METRE.));
#411=PROPERTY_DEFINITION('geometric validation property',
'area of RONDELLE_AMORTISSEUR_MERCURY',#384);
#412=REPRESENTATION('surface area',(#410),#370);
#413=PROPERTY_DEFINITION_REPRESENTATION(#411,#412);
#414=(LENGTH_UNIT()NAMED_UNIT(*)SI_UNIT(.MILLI.,.METRE.));
#418=PROPERTY_DEFINITION('geometric validation property',
'volume of RONDELLE_AMORTISSEUR_MERCURY',#384);
#419=REPRESENTATION('volume',(#417),#370);
#420=PROPERTY_DEFINITION_REPRESENTATION(#418,#419);
#422=PROPERTY_DEFINITION('geometric validation property',
'centroid of RONDELLE_AMORTISSEUR_MERCURY',#384);
#423=REPRESENTATION('centroid',(#421),#370);
#424=PROPERTY_DEFINITION_REPRESENTATION(#422,#423);
#425=SHAPE_DEFINITION_REPRESENTATION(#384,#373);
ENDSEC;
END-ISO-10303-21;
