ISO-10303-21;
HEADER;
/* Generated by software containing ST-Developer
 * from STEP Tools, Inc. (www.steptools.com) 
 */

FILE_DESCRIPTION(
/* description */ (''),
/* implementation_level */ '2;1');

FILE_NAME(
/* name */ 
'C:\\Users\\Louis.petitjean\\Desktop\\GSE-1201-000-000-A Thruster Bala
nce\\Calibration null balance subsystem\\Plate link TS_Coil support.st
p',
/* time_stamp */ '2022-02-24T15:23:43+01:00',
/* author */ ('louis.petitjean'),
/* organization */ (''),
/* preprocessor_version */ 'ST-DEVELOPER v18',
/* originating_system */ 'Autodesk Inventor 2020',
/* authorisation */ '');

FILE_SCHEMA (('AUTOMOTIVE_DESIGN { 1 0 10303 214 3 1 1 }'));
ENDSEC;

DATA;
#10=MECHANICAL_DESIGN_GEOMETRIC_PRESENTATION_REPRESENTATION('',(#13),#630);
#11=SHAPE_REPRESENTATION_RELATIONSHIP('SRR','None',#637,#12);
#12=ADVANCED_BREP_SHAPE_REPRESENTATION('',(#14),#629);
#13=STYLED_ITEM('',(#646),#14);
#14=MANIFOLD_SOLID_BREP('Solid1',#359);
#15=FACE_BOUND('',#68,.T.);
#16=FACE_BOUND('',#69,.T.);
#17=FACE_BOUND('',#70,.T.);
#18=FACE_BOUND('',#71,.T.);
#19=FACE_BOUND('',#72,.T.);
#20=FACE_BOUND('',#73,.T.);
#21=FACE_BOUND('',#74,.T.);
#22=FACE_BOUND('',#75,.T.);
#23=FACE_BOUND('',#76,.T.);
#24=FACE_BOUND('',#78,.T.);
#25=FACE_BOUND('',#79,.T.);
#26=FACE_BOUND('',#80,.T.);
#27=FACE_BOUND('',#81,.T.);
#28=FACE_BOUND('',#82,.T.);
#29=FACE_BOUND('',#83,.T.);
#30=FACE_BOUND('',#84,.T.);
#31=FACE_BOUND('',#85,.T.);
#32=FACE_BOUND('',#86,.T.);
#33=PLANE('',#415);
#34=PLANE('',#416);
#35=PLANE('',#417);
#36=PLANE('',#418);
#37=PLANE('',#419);
#38=PLANE('',#420);
#39=FACE_OUTER_BOUND('',#54,.T.);
#40=FACE_OUTER_BOUND('',#55,.T.);
#41=FACE_OUTER_BOUND('',#56,.T.);
#42=FACE_OUTER_BOUND('',#57,.T.);
#43=FACE_OUTER_BOUND('',#58,.T.);
#44=FACE_OUTER_BOUND('',#59,.T.);
#45=FACE_OUTER_BOUND('',#60,.T.);
#46=FACE_OUTER_BOUND('',#61,.T.);
#47=FACE_OUTER_BOUND('',#62,.T.);
#48=FACE_OUTER_BOUND('',#63,.T.);
#49=FACE_OUTER_BOUND('',#64,.T.);
#50=FACE_OUTER_BOUND('',#65,.T.);
#51=FACE_OUTER_BOUND('',#66,.T.);
#52=FACE_OUTER_BOUND('',#67,.T.);
#53=FACE_OUTER_BOUND('',#77,.T.);
#54=EDGE_LOOP('',(#239,#240,#241,#242,#243));
#55=EDGE_LOOP('',(#244,#245,#246,#247,#248));
#56=EDGE_LOOP('',(#249,#250,#251,#252,#253));
#57=EDGE_LOOP('',(#254,#255,#256,#257,#258));
#58=EDGE_LOOP('',(#259,#260,#261,#262,#263));
#59=EDGE_LOOP('',(#264,#265,#266,#267,#268));
#60=EDGE_LOOP('',(#269,#270,#271,#272,#273));
#61=EDGE_LOOP('',(#274,#275,#276,#277,#278));
#62=EDGE_LOOP('',(#279,#280,#281,#282,#283));
#63=EDGE_LOOP('',(#284,#285,#286,#287));
#64=EDGE_LOOP('',(#288,#289,#290,#291));
#65=EDGE_LOOP('',(#292,#293,#294,#295));
#66=EDGE_LOOP('',(#296,#297,#298,#299));
#67=EDGE_LOOP('',(#300,#301,#302,#303));
#68=EDGE_LOOP('',(#304,#305));
#69=EDGE_LOOP('',(#306,#307));
#70=EDGE_LOOP('',(#308,#309));
#71=EDGE_LOOP('',(#310,#311));
#72=EDGE_LOOP('',(#312,#313));
#73=EDGE_LOOP('',(#314,#315));
#74=EDGE_LOOP('',(#316,#317));
#75=EDGE_LOOP('',(#318,#319));
#76=EDGE_LOOP('',(#320,#321));
#77=EDGE_LOOP('',(#322,#323,#324,#325));
#78=EDGE_LOOP('',(#326));
#79=EDGE_LOOP('',(#327));
#80=EDGE_LOOP('',(#328));
#81=EDGE_LOOP('',(#329));
#82=EDGE_LOOP('',(#330));
#83=EDGE_LOOP('',(#331));
#84=EDGE_LOOP('',(#332));
#85=EDGE_LOOP('',(#333));
#86=EDGE_LOOP('',(#334));
#87=LINE('',#535,#108);
#88=LINE('',#543,#109);
#89=LINE('',#551,#110);
#90=LINE('',#559,#111);
#91=LINE('',#567,#112);
#92=LINE('',#575,#113);
#93=LINE('',#583,#114);
#94=LINE('',#591,#115);
#95=LINE('',#599,#116);
#96=LINE('',#604,#117);
#97=LINE('',#606,#118);
#98=LINE('',#608,#119);
#99=LINE('',#609,#120);
#100=LINE('',#612,#121);
#101=LINE('',#614,#122);
#102=LINE('',#615,#123);
#103=LINE('',#618,#124);
#104=LINE('',#620,#125);
#105=LINE('',#621,#126);
#106=LINE('',#623,#127);
#107=LINE('',#624,#128);
#108=VECTOR('',#429,1.1);
#109=VECTOR('',#438,1.1);
#110=VECTOR('',#447,1.1);
#111=VECTOR('',#456,2.4585);
#112=VECTOR('',#465,2.4585);
#113=VECTOR('',#474,2.4585);
#114=VECTOR('',#483,2.4585);
#115=VECTOR('',#492,2.4585);
#116=VECTOR('',#501,2.4585);
#117=VECTOR('',#506,10.);
#118=VECTOR('',#507,10.);
#119=VECTOR('',#508,10.);
#120=VECTOR('',#509,10.);
#121=VECTOR('',#512,10.);
#122=VECTOR('',#513,10.);
#123=VECTOR('',#514,10.);
#124=VECTOR('',#517,10.);
#125=VECTOR('',#518,10.);
#126=VECTOR('',#519,10.);
#127=VECTOR('',#522,10.);
#128=VECTOR('',#523,10.);
#129=CIRCLE('',#380,1.1);
#130=CIRCLE('',#381,1.1);
#131=CIRCLE('',#382,1.1);
#132=CIRCLE('',#384,1.1);
#133=CIRCLE('',#385,1.1);
#134=CIRCLE('',#386,1.1);
#135=CIRCLE('',#388,1.1);
#136=CIRCLE('',#389,1.1);
#137=CIRCLE('',#390,1.1);
#138=CIRCLE('',#392,2.4585);
#139=CIRCLE('',#393,2.4585);
#140=CIRCLE('',#394,2.4585);
#141=CIRCLE('',#396,2.4585);
#142=CIRCLE('',#397,2.4585);
#143=CIRCLE('',#398,2.4585);
#144=CIRCLE('',#400,2.4585);
#145=CIRCLE('',#401,2.4585);
#146=CIRCLE('',#402,2.4585);
#147=CIRCLE('',#404,2.4585);
#148=CIRCLE('',#405,2.4585);
#149=CIRCLE('',#406,2.4585);
#150=CIRCLE('',#408,2.4585);
#151=CIRCLE('',#409,2.4585);
#152=CIRCLE('',#410,2.4585);
#153=CIRCLE('',#412,2.4585);
#154=CIRCLE('',#413,2.4585);
#155=CIRCLE('',#414,2.4585);
#156=VERTEX_POINT('',#530);
#157=VERTEX_POINT('',#531);
#158=VERTEX_POINT('',#534);
#159=VERTEX_POINT('',#538);
#160=VERTEX_POINT('',#539);
#161=VERTEX_POINT('',#542);
#162=VERTEX_POINT('',#546);
#163=VERTEX_POINT('',#547);
#164=VERTEX_POINT('',#550);
#165=VERTEX_POINT('',#554);
#166=VERTEX_POINT('',#555);
#167=VERTEX_POINT('',#558);
#168=VERTEX_POINT('',#562);
#169=VERTEX_POINT('',#563);
#170=VERTEX_POINT('',#566);
#171=VERTEX_POINT('',#570);
#172=VERTEX_POINT('',#571);
#173=VERTEX_POINT('',#574);
#174=VERTEX_POINT('',#578);
#175=VERTEX_POINT('',#579);
#176=VERTEX_POINT('',#582);
#177=VERTEX_POINT('',#586);
#178=VERTEX_POINT('',#587);
#179=VERTEX_POINT('',#590);
#180=VERTEX_POINT('',#594);
#181=VERTEX_POINT('',#595);
#182=VERTEX_POINT('',#598);
#183=VERTEX_POINT('',#602);
#184=VERTEX_POINT('',#603);
#185=VERTEX_POINT('',#605);
#186=VERTEX_POINT('',#607);
#187=VERTEX_POINT('',#611);
#188=VERTEX_POINT('',#613);
#189=VERTEX_POINT('',#617);
#190=VERTEX_POINT('',#619);
#191=EDGE_CURVE('',#156,#157,#129,.T.);
#192=EDGE_CURVE('',#157,#156,#130,.T.);
#193=EDGE_CURVE('',#157,#158,#87,.T.);
#194=EDGE_CURVE('',#158,#158,#131,.T.);
#195=EDGE_CURVE('',#159,#160,#132,.T.);
#196=EDGE_CURVE('',#160,#159,#133,.T.);
#197=EDGE_CURVE('',#160,#161,#88,.T.);
#198=EDGE_CURVE('',#161,#161,#134,.T.);
#199=EDGE_CURVE('',#162,#163,#135,.T.);
#200=EDGE_CURVE('',#163,#162,#136,.T.);
#201=EDGE_CURVE('',#163,#164,#89,.T.);
#202=EDGE_CURVE('',#164,#164,#137,.T.);
#203=EDGE_CURVE('',#165,#166,#138,.T.);
#204=EDGE_CURVE('',#166,#165,#139,.T.);
#205=EDGE_CURVE('',#166,#167,#90,.T.);
#206=EDGE_CURVE('',#167,#167,#140,.T.);
#207=EDGE_CURVE('',#168,#169,#141,.T.);
#208=EDGE_CURVE('',#169,#168,#142,.T.);
#209=EDGE_CURVE('',#169,#170,#91,.T.);
#210=EDGE_CURVE('',#170,#170,#143,.T.);
#211=EDGE_CURVE('',#171,#172,#144,.T.);
#212=EDGE_CURVE('',#172,#171,#145,.T.);
#213=EDGE_CURVE('',#172,#173,#92,.T.);
#214=EDGE_CURVE('',#173,#173,#146,.T.);
#215=EDGE_CURVE('',#174,#175,#147,.T.);
#216=EDGE_CURVE('',#175,#174,#148,.T.);
#217=EDGE_CURVE('',#175,#176,#93,.T.);
#218=EDGE_CURVE('',#176,#176,#149,.T.);
#219=EDGE_CURVE('',#177,#178,#150,.T.);
#220=EDGE_CURVE('',#178,#177,#151,.T.);
#221=EDGE_CURVE('',#178,#179,#94,.T.);
#222=EDGE_CURVE('',#179,#179,#152,.T.);
#223=EDGE_CURVE('',#180,#181,#153,.T.);
#224=EDGE_CURVE('',#181,#180,#154,.T.);
#225=EDGE_CURVE('',#181,#182,#95,.T.);
#226=EDGE_CURVE('',#182,#182,#155,.T.);
#227=EDGE_CURVE('',#183,#184,#96,.T.);
#228=EDGE_CURVE('',#184,#185,#97,.T.);
#229=EDGE_CURVE('',#186,#185,#98,.T.);
#230=EDGE_CURVE('',#183,#186,#99,.T.);
#231=EDGE_CURVE('',#187,#183,#100,.T.);
#232=EDGE_CURVE('',#188,#186,#101,.T.);
#233=EDGE_CURVE('',#187,#188,#102,.T.);
#234=EDGE_CURVE('',#189,#187,#103,.T.);
#235=EDGE_CURVE('',#190,#188,#104,.T.);
#236=EDGE_CURVE('',#189,#190,#105,.T.);
#237=EDGE_CURVE('',#184,#189,#106,.T.);
#238=EDGE_CURVE('',#185,#190,#107,.T.);
#239=ORIENTED_EDGE('',*,*,#191,.F.);
#240=ORIENTED_EDGE('',*,*,#192,.F.);
#241=ORIENTED_EDGE('',*,*,#193,.T.);
#242=ORIENTED_EDGE('',*,*,#194,.F.);
#243=ORIENTED_EDGE('',*,*,#193,.F.);
#244=ORIENTED_EDGE('',*,*,#195,.F.);
#245=ORIENTED_EDGE('',*,*,#196,.F.);
#246=ORIENTED_EDGE('',*,*,#197,.T.);
#247=ORIENTED_EDGE('',*,*,#198,.F.);
#248=ORIENTED_EDGE('',*,*,#197,.F.);
#249=ORIENTED_EDGE('',*,*,#199,.F.);
#250=ORIENTED_EDGE('',*,*,#200,.F.);
#251=ORIENTED_EDGE('',*,*,#201,.T.);
#252=ORIENTED_EDGE('',*,*,#202,.F.);
#253=ORIENTED_EDGE('',*,*,#201,.F.);
#254=ORIENTED_EDGE('',*,*,#203,.F.);
#255=ORIENTED_EDGE('',*,*,#204,.F.);
#256=ORIENTED_EDGE('',*,*,#205,.T.);
#257=ORIENTED_EDGE('',*,*,#206,.F.);
#258=ORIENTED_EDGE('',*,*,#205,.F.);
#259=ORIENTED_EDGE('',*,*,#207,.F.);
#260=ORIENTED_EDGE('',*,*,#208,.F.);
#261=ORIENTED_EDGE('',*,*,#209,.T.);
#262=ORIENTED_EDGE('',*,*,#210,.F.);
#263=ORIENTED_EDGE('',*,*,#209,.F.);
#264=ORIENTED_EDGE('',*,*,#211,.F.);
#265=ORIENTED_EDGE('',*,*,#212,.F.);
#266=ORIENTED_EDGE('',*,*,#213,.T.);
#267=ORIENTED_EDGE('',*,*,#214,.F.);
#268=ORIENTED_EDGE('',*,*,#213,.F.);
#269=ORIENTED_EDGE('',*,*,#215,.F.);
#270=ORIENTED_EDGE('',*,*,#216,.F.);
#271=ORIENTED_EDGE('',*,*,#217,.T.);
#272=ORIENTED_EDGE('',*,*,#218,.F.);
#273=ORIENTED_EDGE('',*,*,#217,.F.);
#274=ORIENTED_EDGE('',*,*,#219,.F.);
#275=ORIENTED_EDGE('',*,*,#220,.F.);
#276=ORIENTED_EDGE('',*,*,#221,.T.);
#277=ORIENTED_EDGE('',*,*,#222,.F.);
#278=ORIENTED_EDGE('',*,*,#221,.F.);
#279=ORIENTED_EDGE('',*,*,#223,.F.);
#280=ORIENTED_EDGE('',*,*,#224,.F.);
#281=ORIENTED_EDGE('',*,*,#225,.T.);
#282=ORIENTED_EDGE('',*,*,#226,.F.);
#283=ORIENTED_EDGE('',*,*,#225,.F.);
#284=ORIENTED_EDGE('',*,*,#227,.T.);
#285=ORIENTED_EDGE('',*,*,#228,.T.);
#286=ORIENTED_EDGE('',*,*,#229,.F.);
#287=ORIENTED_EDGE('',*,*,#230,.F.);
#288=ORIENTED_EDGE('',*,*,#231,.T.);
#289=ORIENTED_EDGE('',*,*,#230,.T.);
#290=ORIENTED_EDGE('',*,*,#232,.F.);
#291=ORIENTED_EDGE('',*,*,#233,.F.);
#292=ORIENTED_EDGE('',*,*,#234,.T.);
#293=ORIENTED_EDGE('',*,*,#233,.T.);
#294=ORIENTED_EDGE('',*,*,#235,.F.);
#295=ORIENTED_EDGE('',*,*,#236,.F.);
#296=ORIENTED_EDGE('',*,*,#237,.T.);
#297=ORIENTED_EDGE('',*,*,#236,.T.);
#298=ORIENTED_EDGE('',*,*,#238,.F.);
#299=ORIENTED_EDGE('',*,*,#228,.F.);
#300=ORIENTED_EDGE('',*,*,#238,.T.);
#301=ORIENTED_EDGE('',*,*,#235,.T.);
#302=ORIENTED_EDGE('',*,*,#232,.T.);
#303=ORIENTED_EDGE('',*,*,#229,.T.);
#304=ORIENTED_EDGE('',*,*,#191,.T.);
#305=ORIENTED_EDGE('',*,*,#192,.T.);
#306=ORIENTED_EDGE('',*,*,#195,.T.);
#307=ORIENTED_EDGE('',*,*,#196,.T.);
#308=ORIENTED_EDGE('',*,*,#199,.T.);
#309=ORIENTED_EDGE('',*,*,#200,.T.);
#310=ORIENTED_EDGE('',*,*,#203,.T.);
#311=ORIENTED_EDGE('',*,*,#204,.T.);
#312=ORIENTED_EDGE('',*,*,#207,.T.);
#313=ORIENTED_EDGE('',*,*,#208,.T.);
#314=ORIENTED_EDGE('',*,*,#211,.T.);
#315=ORIENTED_EDGE('',*,*,#212,.T.);
#316=ORIENTED_EDGE('',*,*,#215,.T.);
#317=ORIENTED_EDGE('',*,*,#216,.T.);
#318=ORIENTED_EDGE('',*,*,#219,.T.);
#319=ORIENTED_EDGE('',*,*,#220,.T.);
#320=ORIENTED_EDGE('',*,*,#223,.T.);
#321=ORIENTED_EDGE('',*,*,#224,.T.);
#322=ORIENTED_EDGE('',*,*,#237,.F.);
#323=ORIENTED_EDGE('',*,*,#227,.F.);
#324=ORIENTED_EDGE('',*,*,#231,.F.);
#325=ORIENTED_EDGE('',*,*,#234,.F.);
#326=ORIENTED_EDGE('',*,*,#194,.T.);
#327=ORIENTED_EDGE('',*,*,#198,.T.);
#328=ORIENTED_EDGE('',*,*,#202,.T.);
#329=ORIENTED_EDGE('',*,*,#206,.T.);
#330=ORIENTED_EDGE('',*,*,#210,.T.);
#331=ORIENTED_EDGE('',*,*,#214,.T.);
#332=ORIENTED_EDGE('',*,*,#218,.T.);
#333=ORIENTED_EDGE('',*,*,#222,.T.);
#334=ORIENTED_EDGE('',*,*,#226,.T.);
#335=CYLINDRICAL_SURFACE('',#379,1.1);
#336=CYLINDRICAL_SURFACE('',#383,1.1);
#337=CYLINDRICAL_SURFACE('',#387,1.1);
#338=CYLINDRICAL_SURFACE('',#391,2.4585);
#339=CYLINDRICAL_SURFACE('',#395,2.4585);
#340=CYLINDRICAL_SURFACE('',#399,2.4585);
#341=CYLINDRICAL_SURFACE('',#403,2.4585);
#342=CYLINDRICAL_SURFACE('',#407,2.4585);
#343=CYLINDRICAL_SURFACE('',#411,2.4585);
#344=ADVANCED_FACE('',(#39),#335,.F.);
#345=ADVANCED_FACE('',(#40),#336,.F.);
#346=ADVANCED_FACE('',(#41),#337,.F.);
#347=ADVANCED_FACE('',(#42),#338,.F.);
#348=ADVANCED_FACE('',(#43),#339,.F.);
#349=ADVANCED_FACE('',(#44),#340,.F.);
#350=ADVANCED_FACE('',(#45),#341,.F.);
#351=ADVANCED_FACE('',(#46),#342,.F.);
#352=ADVANCED_FACE('',(#47),#343,.F.);
#353=ADVANCED_FACE('',(#48),#33,.T.);
#354=ADVANCED_FACE('',(#49),#34,.T.);
#355=ADVANCED_FACE('',(#50),#35,.T.);
#356=ADVANCED_FACE('',(#51),#36,.T.);
#357=ADVANCED_FACE('',(#52,#15,#16,#17,#18,#19,#20,#21,#22,#23),#37,.T.);
#358=ADVANCED_FACE('',(#53,#24,#25,#26,#27,#28,#29,#30,#31,#32),#38,.F.);
#359=CLOSED_SHELL('',(#344,#345,#346,#347,#348,#349,#350,#351,#352,#353,
#354,#355,#356,#357,#358));
#360=DERIVED_UNIT_ELEMENT(#362,1.);
#361=DERIVED_UNIT_ELEMENT(#632,3.);
#362=(
MASS_UNIT()
NAMED_UNIT(*)
SI_UNIT($,.GRAM.)
);
#363=DERIVED_UNIT((#360,#361));
#364=MEASURE_REPRESENTATION_ITEM('density measure',
POSITIVE_RATIO_MEASURE(2.7),#363);
#365=PROPERTY_DEFINITION_REPRESENTATION(#370,#367);
#366=PROPERTY_DEFINITION_REPRESENTATION(#371,#368);
#367=REPRESENTATION('material name',(#369),#629);
#368=REPRESENTATION('density',(#364),#629);
#369=DESCRIPTIVE_REPRESENTATION_ITEM('Aluminum 6061','Aluminum 6061');
#370=PROPERTY_DEFINITION('material property','material name',#639);
#371=PROPERTY_DEFINITION('material property','density of part',#639);
#372=DATE_TIME_ROLE('creation_date');
#373=APPLIED_DATE_AND_TIME_ASSIGNMENT(#374,#372,(#639));
#374=DATE_AND_TIME(#375,#376);
#375=CALENDAR_DATE(2022,11,2);
#376=LOCAL_TIME(10,23,0.,#377);
#377=COORDINATED_UNIVERSAL_TIME_OFFSET(0,0,.BEHIND.);
#378=AXIS2_PLACEMENT_3D('placement',#528,#421,#422);
#379=AXIS2_PLACEMENT_3D('',#529,#423,#424);
#380=AXIS2_PLACEMENT_3D('',#532,#425,#426);
#381=AXIS2_PLACEMENT_3D('',#533,#427,#428);
#382=AXIS2_PLACEMENT_3D('',#536,#430,#431);
#383=AXIS2_PLACEMENT_3D('',#537,#432,#433);
#384=AXIS2_PLACEMENT_3D('',#540,#434,#435);
#385=AXIS2_PLACEMENT_3D('',#541,#436,#437);
#386=AXIS2_PLACEMENT_3D('',#544,#439,#440);
#387=AXIS2_PLACEMENT_3D('',#545,#441,#442);
#388=AXIS2_PLACEMENT_3D('',#548,#443,#444);
#389=AXIS2_PLACEMENT_3D('',#549,#445,#446);
#390=AXIS2_PLACEMENT_3D('',#552,#448,#449);
#391=AXIS2_PLACEMENT_3D('',#553,#450,#451);
#392=AXIS2_PLACEMENT_3D('',#556,#452,#453);
#393=AXIS2_PLACEMENT_3D('',#557,#454,#455);
#394=AXIS2_PLACEMENT_3D('',#560,#457,#458);
#395=AXIS2_PLACEMENT_3D('',#561,#459,#460);
#396=AXIS2_PLACEMENT_3D('',#564,#461,#462);
#397=AXIS2_PLACEMENT_3D('',#565,#463,#464);
#398=AXIS2_PLACEMENT_3D('',#568,#466,#467);
#399=AXIS2_PLACEMENT_3D('',#569,#468,#469);
#400=AXIS2_PLACEMENT_3D('',#572,#470,#471);
#401=AXIS2_PLACEMENT_3D('',#573,#472,#473);
#402=AXIS2_PLACEMENT_3D('',#576,#475,#476);
#403=AXIS2_PLACEMENT_3D('',#577,#477,#478);
#404=AXIS2_PLACEMENT_3D('',#580,#479,#480);
#405=AXIS2_PLACEMENT_3D('',#581,#481,#482);
#406=AXIS2_PLACEMENT_3D('',#584,#484,#485);
#407=AXIS2_PLACEMENT_3D('',#585,#486,#487);
#408=AXIS2_PLACEMENT_3D('',#588,#488,#489);
#409=AXIS2_PLACEMENT_3D('',#589,#490,#491);
#410=AXIS2_PLACEMENT_3D('',#592,#493,#494);
#411=AXIS2_PLACEMENT_3D('',#593,#495,#496);
#412=AXIS2_PLACEMENT_3D('',#596,#497,#498);
#413=AXIS2_PLACEMENT_3D('',#597,#499,#500);
#414=AXIS2_PLACEMENT_3D('',#600,#502,#503);
#415=AXIS2_PLACEMENT_3D('',#601,#504,#505);
#416=AXIS2_PLACEMENT_3D('',#610,#510,#511);
#417=AXIS2_PLACEMENT_3D('',#616,#515,#516);
#418=AXIS2_PLACEMENT_3D('',#622,#520,#521);
#419=AXIS2_PLACEMENT_3D('',#625,#524,#525);
#420=AXIS2_PLACEMENT_3D('',#626,#526,#527);
#421=DIRECTION('axis',(0.,0.,1.));
#422=DIRECTION('refdir',(1.,0.,0.));
#423=DIRECTION('center_axis',(1.,0.,0.));
#424=DIRECTION('ref_axis',(0.,0.,-1.));
#425=DIRECTION('center_axis',(-1.,0.,0.));
#426=DIRECTION('ref_axis',(0.,0.,-1.));
#427=DIRECTION('center_axis',(-1.,0.,0.));
#428=DIRECTION('ref_axis',(0.,0.,-1.));
#429=DIRECTION('',(-1.,0.,0.));
#430=DIRECTION('center_axis',(1.,0.,0.));
#431=DIRECTION('ref_axis',(0.,0.,-1.));
#432=DIRECTION('center_axis',(1.,0.,0.));
#433=DIRECTION('ref_axis',(0.,0.,-1.));
#434=DIRECTION('center_axis',(-1.,0.,0.));
#435=DIRECTION('ref_axis',(0.,0.,-1.));
#436=DIRECTION('center_axis',(-1.,0.,0.));
#437=DIRECTION('ref_axis',(0.,0.,-1.));
#438=DIRECTION('',(-1.,0.,0.));
#439=DIRECTION('center_axis',(1.,0.,0.));
#440=DIRECTION('ref_axis',(0.,0.,-1.));
#441=DIRECTION('center_axis',(1.,0.,0.));
#442=DIRECTION('ref_axis',(0.,0.,-1.));
#443=DIRECTION('center_axis',(-1.,0.,0.));
#444=DIRECTION('ref_axis',(0.,0.,-1.));
#445=DIRECTION('center_axis',(-1.,0.,0.));
#446=DIRECTION('ref_axis',(0.,0.,-1.));
#447=DIRECTION('',(-1.,0.,0.));
#448=DIRECTION('center_axis',(1.,0.,0.));
#449=DIRECTION('ref_axis',(0.,0.,-1.));
#450=DIRECTION('center_axis',(1.,0.,0.));
#451=DIRECTION('ref_axis',(0.,0.,-1.));
#452=DIRECTION('center_axis',(-1.,0.,0.));
#453=DIRECTION('ref_axis',(0.,0.,-1.));
#454=DIRECTION('center_axis',(-1.,0.,0.));
#455=DIRECTION('ref_axis',(0.,0.,-1.));
#456=DIRECTION('',(-1.,0.,0.));
#457=DIRECTION('center_axis',(1.,0.,0.));
#458=DIRECTION('ref_axis',(0.,0.,-1.));
#459=DIRECTION('center_axis',(1.,0.,0.));
#460=DIRECTION('ref_axis',(0.,0.,-1.));
#461=DIRECTION('center_axis',(-1.,0.,0.));
#462=DIRECTION('ref_axis',(0.,0.,-1.));
#463=DIRECTION('center_axis',(-1.,0.,0.));
#464=DIRECTION('ref_axis',(0.,0.,-1.));
#465=DIRECTION('',(-1.,0.,0.));
#466=DIRECTION('center_axis',(1.,0.,0.));
#467=DIRECTION('ref_axis',(0.,0.,-1.));
#468=DIRECTION('center_axis',(1.,0.,0.));
#469=DIRECTION('ref_axis',(0.,0.,-1.));
#470=DIRECTION('center_axis',(-1.,0.,0.));
#471=DIRECTION('ref_axis',(0.,0.,-1.));
#472=DIRECTION('center_axis',(-1.,0.,0.));
#473=DIRECTION('ref_axis',(0.,0.,-1.));
#474=DIRECTION('',(-1.,0.,0.));
#475=DIRECTION('center_axis',(1.,0.,0.));
#476=DIRECTION('ref_axis',(0.,0.,-1.));
#477=DIRECTION('center_axis',(1.,0.,0.));
#478=DIRECTION('ref_axis',(0.,0.,-1.));
#479=DIRECTION('center_axis',(-1.,0.,0.));
#480=DIRECTION('ref_axis',(0.,0.,-1.));
#481=DIRECTION('center_axis',(-1.,0.,0.));
#482=DIRECTION('ref_axis',(0.,0.,-1.));
#483=DIRECTION('',(-1.,0.,0.));
#484=DIRECTION('center_axis',(1.,0.,0.));
#485=DIRECTION('ref_axis',(0.,0.,-1.));
#486=DIRECTION('center_axis',(1.,0.,0.));
#487=DIRECTION('ref_axis',(0.,0.,-1.));
#488=DIRECTION('center_axis',(-1.,0.,0.));
#489=DIRECTION('ref_axis',(0.,0.,-1.));
#490=DIRECTION('center_axis',(-1.,0.,0.));
#491=DIRECTION('ref_axis',(0.,0.,-1.));
#492=DIRECTION('',(-1.,0.,0.));
#493=DIRECTION('center_axis',(1.,0.,0.));
#494=DIRECTION('ref_axis',(0.,0.,-1.));
#495=DIRECTION('center_axis',(1.,0.,0.));
#496=DIRECTION('ref_axis',(0.,0.,-1.));
#497=DIRECTION('center_axis',(-1.,0.,0.));
#498=DIRECTION('ref_axis',(0.,0.,-1.));
#499=DIRECTION('center_axis',(-1.,0.,0.));
#500=DIRECTION('ref_axis',(0.,0.,-1.));
#501=DIRECTION('',(-1.,0.,0.));
#502=DIRECTION('center_axis',(1.,0.,0.));
#503=DIRECTION('ref_axis',(0.,0.,-1.));
#504=DIRECTION('center_axis',(0.,0.,-1.));
#505=DIRECTION('ref_axis',(0.,1.,0.));
#506=DIRECTION('',(0.,1.,0.));
#507=DIRECTION('',(1.,0.,0.));
#508=DIRECTION('',(0.,1.,0.));
#509=DIRECTION('',(1.,0.,0.));
#510=DIRECTION('center_axis',(0.,-1.,-1.83697019872103E-16));
#511=DIRECTION('ref_axis',(0.,1.83697019872103E-16,-1.));
#512=DIRECTION('',(0.,1.83697019872103E-16,-1.));
#513=DIRECTION('',(0.,1.83697019872103E-16,-1.));
#514=DIRECTION('',(1.,0.,0.));
#515=DIRECTION('center_axis',(0.,2.81736037578933E-32,1.));
#516=DIRECTION('ref_axis',(0.,-1.,2.81736037578933E-32));
#517=DIRECTION('',(0.,-1.,2.81736037578933E-32));
#518=DIRECTION('',(0.,-1.,2.81736037578933E-32));
#519=DIRECTION('',(1.,0.,0.));
#520=DIRECTION('center_axis',(0.,1.,1.48029736616688E-16));
#521=DIRECTION('ref_axis',(0.,-1.48029736616688E-16,1.));
#522=DIRECTION('',(0.,-1.48029736616688E-16,1.));
#523=DIRECTION('',(0.,-1.48029736616688E-16,1.));
#524=DIRECTION('center_axis',(1.,0.,0.));
#525=DIRECTION('ref_axis',(0.,0.,-1.));
#526=DIRECTION('center_axis',(1.,0.,0.));
#527=DIRECTION('ref_axis',(0.,0.,-1.));
#528=CARTESIAN_POINT('',(0.,0.,0.));
#529=CARTESIAN_POINT('Origin',(-88.2821759604746,68.5,-45.));
#530=CARTESIAN_POINT('',(4.,68.5,-46.1));
#531=CARTESIAN_POINT('',(4.,68.5,-43.9));
#532=CARTESIAN_POINT('Origin',(4.,68.5,-45.));
#533=CARTESIAN_POINT('Origin',(4.,68.5,-45.));
#534=CARTESIAN_POINT('',(0.,68.5,-43.9));
#535=CARTESIAN_POINT('',(-88.2821759604746,68.5,-43.9));
#536=CARTESIAN_POINT('Origin',(0.,68.5,-45.));
#537=CARTESIAN_POINT('Origin',(-88.2821759604746,68.5,-15.));
#538=CARTESIAN_POINT('',(4.,68.5,-16.1));
#539=CARTESIAN_POINT('',(4.,68.5,-13.9));
#540=CARTESIAN_POINT('Origin',(4.,68.5,-15.));
#541=CARTESIAN_POINT('Origin',(4.,68.5,-15.));
#542=CARTESIAN_POINT('',(0.,68.5,-13.9));
#543=CARTESIAN_POINT('',(-88.2821759604746,68.5,-13.9));
#544=CARTESIAN_POINT('Origin',(0.,68.5,-15.));
#545=CARTESIAN_POINT('Origin',(-88.2821759604746,68.5,-30.));
#546=CARTESIAN_POINT('',(4.,68.5,-31.1));
#547=CARTESIAN_POINT('',(4.,68.5,-28.9));
#548=CARTESIAN_POINT('Origin',(4.,68.5,-30.));
#549=CARTESIAN_POINT('Origin',(4.,68.5,-30.));
#550=CARTESIAN_POINT('',(0.,68.5,-28.9));
#551=CARTESIAN_POINT('',(-88.2821759604746,68.5,-28.9));
#552=CARTESIAN_POINT('Origin',(0.,68.5,-30.));
#553=CARTESIAN_POINT('Origin',(-88.2821759604746,37.,-30.));
#554=CARTESIAN_POINT('',(4.,37.,-32.4585));
#555=CARTESIAN_POINT('',(4.,37.,-27.5415));
#556=CARTESIAN_POINT('Origin',(4.,37.,-30.));
#557=CARTESIAN_POINT('Origin',(4.,37.,-30.));
#558=CARTESIAN_POINT('',(0.,37.,-27.5415));
#559=CARTESIAN_POINT('',(-88.2821759604746,37.,-27.5415));
#560=CARTESIAN_POINT('Origin',(0.,37.,-30.));
#561=CARTESIAN_POINT('Origin',(-88.2821759604746,7.00000000000003,-45.));
#562=CARTESIAN_POINT('',(4.,7.00000000000003,-47.4585));
#563=CARTESIAN_POINT('',(4.,7.00000000000003,-42.5415));
#564=CARTESIAN_POINT('Origin',(4.,7.00000000000003,-45.));
#565=CARTESIAN_POINT('Origin',(4.,7.00000000000003,-45.));
#566=CARTESIAN_POINT('',(0.,7.00000000000003,-42.5415));
#567=CARTESIAN_POINT('',(-88.2821759604746,7.00000000000003,-42.5415));
#568=CARTESIAN_POINT('Origin',(0.,7.00000000000003,-45.));
#569=CARTESIAN_POINT('Origin',(-88.2821759604746,7.00000000000002,-15.));
#570=CARTESIAN_POINT('',(4.,7.00000000000002,-17.4585));
#571=CARTESIAN_POINT('',(4.,7.00000000000002,-12.5415));
#572=CARTESIAN_POINT('Origin',(4.,7.00000000000002,-15.));
#573=CARTESIAN_POINT('Origin',(4.,7.00000000000002,-15.));
#574=CARTESIAN_POINT('',(0.,7.00000000000002,-12.5415));
#575=CARTESIAN_POINT('',(-88.2821759604746,7.00000000000002,-12.5415));
#576=CARTESIAN_POINT('Origin',(0.,7.00000000000002,-15.));
#577=CARTESIAN_POINT('Origin',(-88.2821759604746,7.00000000000002,-30.));
#578=CARTESIAN_POINT('',(4.,7.00000000000002,-32.4585));
#579=CARTESIAN_POINT('',(4.,7.00000000000002,-27.5415));
#580=CARTESIAN_POINT('Origin',(4.,7.00000000000002,-30.));
#581=CARTESIAN_POINT('Origin',(4.,7.00000000000002,-30.));
#582=CARTESIAN_POINT('',(0.,7.00000000000002,-27.5415));
#583=CARTESIAN_POINT('',(-88.2821759604746,7.00000000000002,-27.5415));
#584=CARTESIAN_POINT('Origin',(0.,7.00000000000002,-30.));
#585=CARTESIAN_POINT('Origin',(-88.2821759604746,37.,-45.));
#586=CARTESIAN_POINT('',(4.,37.,-47.4585));
#587=CARTESIAN_POINT('',(4.,37.,-42.5415));
#588=CARTESIAN_POINT('Origin',(4.,37.,-45.));
#589=CARTESIAN_POINT('Origin',(4.,37.,-45.));
#590=CARTESIAN_POINT('',(0.,37.,-42.5415));
#591=CARTESIAN_POINT('',(-88.2821759604746,37.,-42.5415));
#592=CARTESIAN_POINT('Origin',(0.,37.,-45.));
#593=CARTESIAN_POINT('Origin',(-88.2821759604746,37.,-15.));
#594=CARTESIAN_POINT('',(4.,37.,-17.4585));
#595=CARTESIAN_POINT('',(4.,37.,-12.5415));
#596=CARTESIAN_POINT('Origin',(4.,37.,-15.));
#597=CARTESIAN_POINT('Origin',(4.,37.,-15.));
#598=CARTESIAN_POINT('',(0.,37.,-12.5415));
#599=CARTESIAN_POINT('',(-88.2821759604746,37.,-12.5415));
#600=CARTESIAN_POINT('Origin',(0.,37.,-15.));
#601=CARTESIAN_POINT('Origin',(0.,1.10218211923262E-14,-60.));
#602=CARTESIAN_POINT('',(0.,1.10218211923262E-14,-60.));
#603=CARTESIAN_POINT('',(0.,70.,-60.));
#604=CARTESIAN_POINT('',(0.,8.88178419700125E-15,-60.));
#605=CARTESIAN_POINT('',(4.,70.,-60.));
#606=CARTESIAN_POINT('',(0.,70.,-60.));
#607=CARTESIAN_POINT('',(4.,8.88178419700125E-15,-60.));
#608=CARTESIAN_POINT('',(4.,8.88178419700125E-15,-60.));
#609=CARTESIAN_POINT('',(0.,1.10218211923262E-14,-60.));
#610=CARTESIAN_POINT('Origin',(0.,0.,0.));
#611=CARTESIAN_POINT('',(0.,0.,0.));
#612=CARTESIAN_POINT('',(0.,0.,0.));
#613=CARTESIAN_POINT('',(4.,0.,0.));
#614=CARTESIAN_POINT('',(4.,0.,0.));
#615=CARTESIAN_POINT('',(0.,0.,0.));
#616=CARTESIAN_POINT('Origin',(0.,70.,-1.97215226305253E-30));
#617=CARTESIAN_POINT('',(0.,70.,-1.97215226305253E-30));
#618=CARTESIAN_POINT('',(0.,70.,-1.97215226305253E-30));
#619=CARTESIAN_POINT('',(4.,70.,0.));
#620=CARTESIAN_POINT('',(4.,70.,-1.97215226305253E-30));
#621=CARTESIAN_POINT('',(0.,70.,-1.97215226305253E-30));
#622=CARTESIAN_POINT('Origin',(0.,70.,-60.));
#623=CARTESIAN_POINT('',(0.,70.,-60.));
#624=CARTESIAN_POINT('',(4.,70.,-60.));
#625=CARTESIAN_POINT('Origin',(4.,35.,-30.));
#626=CARTESIAN_POINT('Origin',(0.,35.,-30.));
#627=UNCERTAINTY_MEASURE_WITH_UNIT(LENGTH_MEASURE(0.01),#631,
'DISTANCE_ACCURACY_VALUE',
'Maximum model space distance between geometric entities at asserted c
onnectivities');
#628=UNCERTAINTY_MEASURE_WITH_UNIT(LENGTH_MEASURE(0.01),#631,
'DISTANCE_ACCURACY_VALUE',
'Maximum model space distance between geometric entities at asserted c
onnectivities');
#629=(
GEOMETRIC_REPRESENTATION_CONTEXT(3)
GLOBAL_UNCERTAINTY_ASSIGNED_CONTEXT((#627))
GLOBAL_UNIT_ASSIGNED_CONTEXT((#631,#633,#634))
REPRESENTATION_CONTEXT('','3D')
);
#630=(
GEOMETRIC_REPRESENTATION_CONTEXT(3)
GLOBAL_UNCERTAINTY_ASSIGNED_CONTEXT((#628))
GLOBAL_UNIT_ASSIGNED_CONTEXT((#631,#633,#634))
REPRESENTATION_CONTEXT('','3D')
);
#631=(
LENGTH_UNIT()
NAMED_UNIT(*)
SI_UNIT(.MILLI.,.METRE.)
);
#632=(
LENGTH_UNIT()
NAMED_UNIT(*)
SI_UNIT(.CENTI.,.METRE.)
);
#633=(
NAMED_UNIT(*)
PLANE_ANGLE_UNIT()
SI_UNIT($,.RADIAN.)
);
#634=(
NAMED_UNIT(*)
SI_UNIT($,.STERADIAN.)
SOLID_ANGLE_UNIT()
);
#635=SHAPE_DEFINITION_REPRESENTATION(#636,#637);
#636=PRODUCT_DEFINITION_SHAPE('',$,#639);
#637=SHAPE_REPRESENTATION('',(#378),#629);
#638=PRODUCT_DEFINITION_CONTEXT('part definition',#643,'design');
#639=PRODUCT_DEFINITION('Plate fixing TS_Coil support',
'Plate link TS_Coil support',#640,#638);
#640=PRODUCT_DEFINITION_FORMATION('',$,#645);
#641=PRODUCT_RELATED_PRODUCT_CATEGORY('Plate link TS_Coil support',
'Plate link TS_Coil support',(#645));
#642=APPLICATION_PROTOCOL_DEFINITION('international standard',
'automotive_design',2009,#643);
#643=APPLICATION_CONTEXT(
'Core Data for Automotive Mechanical Design Process');
#644=PRODUCT_CONTEXT('part definition',#643,'mechanical');
#645=PRODUCT('Plate fixing TS_Coil support',
'Plate link TS_Coil support',$,(#644));
#646=PRESENTATION_STYLE_ASSIGNMENT((#647));
#647=SURFACE_STYLE_USAGE(.BOTH.,#650);
#648=SURFACE_STYLE_RENDERING_WITH_PROPERTIES($,#654,(#649));
#649=SURFACE_STYLE_TRANSPARENT(0.);
#650=SURFACE_SIDE_STYLE('',(#651,#648));
#651=SURFACE_STYLE_FILL_AREA(#652);
#652=FILL_AREA_STYLE('',(#653));
#653=FILL_AREA_STYLE_COLOUR('',#654);
#654=COLOUR_RGB('',0.996078431372549,0.996078431372549,1.);
ENDSEC;
END-ISO-10303-21;
