ISO-10303-21;
HEADER;
/* Generated by software containing ST-Developer
 * from STEP Tools, Inc. (www.steptools.com) 
 */

FILE_DESCRIPTION(
/* description */ (''),
/* implementation_level */ '2;1');

FILE_NAME(
/* name */ 'C:/Users/sasch/Desktop/douille adp v1.step',
/* time_stamp */ '2022-02-10T12:24:14+01:00',
/* author */ (''),
/* organization */ (''),
/* preprocessor_version */ 'ST-DEVELOPER v18.1',
/* originating_system */ 'Autodesk Translation Framework v10.13.0.1454',

/* authorisation */ '');

FILE_SCHEMA (('AUTOMOTIVE_DESIGN { 1 0 10303 214 3 1 1 }'));
ENDSEC;

DATA;
#10=MECHANICAL_DESIGN_GEOMETRIC_PRESENTATION_REPRESENTATION('',(#13),#630);
#11=SHAPE_REPRESENTATION_RELATIONSHIP('SRR','None',#637,#12);
#12=ADVANCED_BREP_SHAPE_REPRESENTATION('',(#14),#629);
#13=STYLED_ITEM('',(#646),#14);
#14=MANIFOLD_SOLID_BREP('Corps1',#351);
#15=CYLINDRICAL_SURFACE('',#395,20.);
#16=CIRCLE('',#384,20.);
#17=CIRCLE('',#386,20.);
#18=CIRCLE('',#388,20.);
#19=CIRCLE('',#390,20.);
#20=CIRCLE('',#392,20.);
#21=CIRCLE('',#394,20.);
#22=CIRCLE('',#396,20.);
#23=FACE_BOUND('',#75,.T.);
#24=FACE_BOUND('',#88,.T.);
#25=FACE_BOUND('',#97,.T.);
#26=PLANE('',#367);
#27=PLANE('',#370);
#28=PLANE('',#371);
#29=PLANE('',#372);
#30=PLANE('',#373);
#31=PLANE('',#374);
#32=PLANE('',#375);
#33=PLANE('',#376);
#34=PLANE('',#377);
#35=PLANE('',#378);
#36=PLANE('',#379);
#37=PLANE('',#380);
#38=PLANE('',#381);
#39=PLANE('',#382);
#40=PLANE('',#383);
#41=PLANE('',#385);
#42=PLANE('',#387);
#43=PLANE('',#389);
#44=PLANE('',#391);
#45=PLANE('',#393);
#46=PLANE('',#397);
#47=FACE_OUTER_BOUND('',#71,.T.);
#48=FACE_OUTER_BOUND('',#72,.T.);
#49=FACE_OUTER_BOUND('',#73,.T.);
#50=FACE_OUTER_BOUND('',#74,.T.);
#51=FACE_OUTER_BOUND('',#76,.T.);
#52=FACE_OUTER_BOUND('',#77,.T.);
#53=FACE_OUTER_BOUND('',#78,.T.);
#54=FACE_OUTER_BOUND('',#79,.T.);
#55=FACE_OUTER_BOUND('',#80,.T.);
#56=FACE_OUTER_BOUND('',#81,.T.);
#57=FACE_OUTER_BOUND('',#82,.T.);
#58=FACE_OUTER_BOUND('',#83,.T.);
#59=FACE_OUTER_BOUND('',#84,.T.);
#60=FACE_OUTER_BOUND('',#85,.T.);
#61=FACE_OUTER_BOUND('',#86,.T.);
#62=FACE_OUTER_BOUND('',#87,.T.);
#63=FACE_OUTER_BOUND('',#89,.T.);
#64=FACE_OUTER_BOUND('',#90,.T.);
#65=FACE_OUTER_BOUND('',#91,.T.);
#66=FACE_OUTER_BOUND('',#92,.T.);
#67=FACE_OUTER_BOUND('',#93,.T.);
#68=FACE_OUTER_BOUND('',#94,.T.);
#69=FACE_OUTER_BOUND('',#95,.T.);
#70=FACE_OUTER_BOUND('',#96,.T.);
#71=EDGE_LOOP('',(#237,#238,#239,#240));
#72=EDGE_LOOP('',(#241));
#73=EDGE_LOOP('',(#242,#243,#244,#245));
#74=EDGE_LOOP('',(#246));
#75=EDGE_LOOP('',(#247));
#76=EDGE_LOOP('',(#248,#249,#250,#251));
#77=EDGE_LOOP('',(#252,#253,#254,#255));
#78=EDGE_LOOP('',(#256,#257,#258,#259));
#79=EDGE_LOOP('',(#260,#261,#262,#263));
#80=EDGE_LOOP('',(#264,#265,#266,#267));
#81=EDGE_LOOP('',(#268,#269,#270,#271));
#82=EDGE_LOOP('',(#272,#273,#274,#275));
#83=EDGE_LOOP('',(#276,#277,#278,#279));
#84=EDGE_LOOP('',(#280,#281,#282,#283));
#85=EDGE_LOOP('',(#284,#285,#286,#287));
#86=EDGE_LOOP('',(#288,#289,#290,#291));
#87=EDGE_LOOP('',(#292,#293,#294,#295,#296,#297));
#88=EDGE_LOOP('',(#298,#299,#300,#301));
#89=EDGE_LOOP('',(#302,#303));
#90=EDGE_LOOP('',(#304,#305));
#91=EDGE_LOOP('',(#306,#307));
#92=EDGE_LOOP('',(#308,#309));
#93=EDGE_LOOP('',(#310,#311));
#94=EDGE_LOOP('',(#312,#313));
#95=EDGE_LOOP('',(#314,#315,#316,#317,#318,#319,#320,#321,#322));
#96=EDGE_LOOP('',(#323));
#97=EDGE_LOOP('',(#324));
#98=LINE('',#521,#131);
#99=LINE('',#545,#132);
#100=LINE('',#551,#133);
#101=LINE('',#553,#134);
#102=LINE('',#555,#135);
#103=LINE('',#556,#136);
#104=LINE('',#559,#137);
#105=LINE('',#561,#138);
#106=LINE('',#562,#139);
#107=LINE('',#565,#140);
#108=LINE('',#567,#141);
#109=LINE('',#568,#142);
#110=LINE('',#570,#143);
#111=LINE('',#571,#144);
#112=LINE('',#576,#145);
#113=LINE('',#578,#146);
#114=LINE('',#580,#147);
#115=LINE('',#581,#148);
#116=LINE('',#584,#149);
#117=LINE('',#586,#150);
#118=LINE('',#587,#151);
#119=LINE('',#590,#152);
#120=LINE('',#592,#153);
#121=LINE('',#593,#154);
#122=LINE('',#596,#155);
#123=LINE('',#598,#156);
#124=LINE('',#599,#157);
#125=LINE('',#602,#158);
#126=LINE('',#604,#159);
#127=LINE('',#605,#160);
#128=LINE('',#607,#161);
#129=LINE('',#608,#162);
#130=LINE('',#624,#163);
#131=VECTOR('',#402,10.);
#132=VECTOR('',#409,14.);
#133=VECTOR('',#416,10.);
#134=VECTOR('',#417,10.);
#135=VECTOR('',#418,10.);
#136=VECTOR('',#419,10.);
#137=VECTOR('',#422,10.);
#138=VECTOR('',#423,10.);
#139=VECTOR('',#424,10.);
#140=VECTOR('',#427,10.);
#141=VECTOR('',#428,10.);
#142=VECTOR('',#429,10.);
#143=VECTOR('',#432,10.);
#144=VECTOR('',#433,10.);
#145=VECTOR('',#438,10.);
#146=VECTOR('',#439,10.);
#147=VECTOR('',#440,10.);
#148=VECTOR('',#441,10.);
#149=VECTOR('',#444,10.);
#150=VECTOR('',#445,10.);
#151=VECTOR('',#446,10.);
#152=VECTOR('',#449,10.);
#153=VECTOR('',#450,10.);
#154=VECTOR('',#451,10.);
#155=VECTOR('',#454,10.);
#156=VECTOR('',#455,10.);
#157=VECTOR('',#456,10.);
#158=VECTOR('',#459,10.);
#159=VECTOR('',#460,10.);
#160=VECTOR('',#461,10.);
#161=VECTOR('',#464,10.);
#162=VECTOR('',#465,10.);
#163=VECTOR('',#494,20.);
#164=ELLIPSE('',#365,10.,8.5);
#165=ELLIPSE('',#366,10.,8.5);
#166=ELLIPSE('',#368,14.,12.5);
#167=ELLIPSE('',#369,14.,12.5);
#168=VERTEX_POINT('',#518);
#169=VERTEX_POINT('',#520);
#170=VERTEX_POINT('',#542);
#171=VERTEX_POINT('',#544);
#172=VERTEX_POINT('',#549);
#173=VERTEX_POINT('',#550);
#174=VERTEX_POINT('',#552);
#175=VERTEX_POINT('',#554);
#176=VERTEX_POINT('',#558);
#177=VERTEX_POINT('',#560);
#178=VERTEX_POINT('',#564);
#179=VERTEX_POINT('',#566);
#180=VERTEX_POINT('',#574);
#181=VERTEX_POINT('',#575);
#182=VERTEX_POINT('',#577);
#183=VERTEX_POINT('',#579);
#184=VERTEX_POINT('',#583);
#185=VERTEX_POINT('',#585);
#186=VERTEX_POINT('',#589);
#187=VERTEX_POINT('',#591);
#188=VERTEX_POINT('',#595);
#189=VERTEX_POINT('',#597);
#190=VERTEX_POINT('',#601);
#191=VERTEX_POINT('',#603);
#192=VERTEX_POINT('',#623);
#193=EDGE_CURVE('',#168,#168,#164,.T.);
#194=EDGE_CURVE('',#168,#169,#98,.T.);
#195=EDGE_CURVE('',#169,#169,#165,.T.);
#196=EDGE_CURVE('',#170,#170,#166,.T.);
#197=EDGE_CURVE('',#170,#171,#99,.T.);
#198=EDGE_CURVE('',#171,#171,#167,.T.);
#199=EDGE_CURVE('',#172,#173,#100,.T.);
#200=EDGE_CURVE('',#172,#174,#101,.T.);
#201=EDGE_CURVE('',#174,#175,#102,.T.);
#202=EDGE_CURVE('',#173,#175,#103,.T.);
#203=EDGE_CURVE('',#176,#172,#104,.T.);
#204=EDGE_CURVE('',#176,#177,#105,.T.);
#205=EDGE_CURVE('',#177,#174,#106,.T.);
#206=EDGE_CURVE('',#178,#176,#107,.T.);
#207=EDGE_CURVE('',#178,#179,#108,.T.);
#208=EDGE_CURVE('',#179,#177,#109,.T.);
#209=EDGE_CURVE('',#173,#178,#110,.T.);
#210=EDGE_CURVE('',#175,#179,#111,.T.);
#211=EDGE_CURVE('',#180,#181,#112,.T.);
#212=EDGE_CURVE('',#180,#182,#113,.T.);
#213=EDGE_CURVE('',#183,#182,#114,.T.);
#214=EDGE_CURVE('',#181,#183,#115,.T.);
#215=EDGE_CURVE('',#181,#184,#116,.T.);
#216=EDGE_CURVE('',#185,#183,#117,.T.);
#217=EDGE_CURVE('',#184,#185,#118,.T.);
#218=EDGE_CURVE('',#184,#186,#119,.T.);
#219=EDGE_CURVE('',#187,#185,#120,.T.);
#220=EDGE_CURVE('',#186,#187,#121,.T.);
#221=EDGE_CURVE('',#186,#188,#122,.T.);
#222=EDGE_CURVE('',#189,#187,#123,.T.);
#223=EDGE_CURVE('',#188,#189,#124,.T.);
#224=EDGE_CURVE('',#188,#190,#125,.T.);
#225=EDGE_CURVE('',#191,#189,#126,.T.);
#226=EDGE_CURVE('',#190,#191,#127,.T.);
#227=EDGE_CURVE('',#190,#180,#128,.T.);
#228=EDGE_CURVE('',#182,#191,#129,.T.);
#229=EDGE_CURVE('',#180,#181,#16,.T.);
#230=EDGE_CURVE('',#181,#184,#17,.T.);
#231=EDGE_CURVE('',#184,#186,#18,.T.);
#232=EDGE_CURVE('',#186,#188,#19,.T.);
#233=EDGE_CURVE('',#188,#190,#20,.T.);
#234=EDGE_CURVE('',#190,#180,#21,.T.);
#235=EDGE_CURVE('',#184,#192,#130,.T.);
#236=EDGE_CURVE('',#192,#192,#22,.T.);
#237=ORIENTED_EDGE('',*,*,#193,.F.);
#238=ORIENTED_EDGE('',*,*,#194,.T.);
#239=ORIENTED_EDGE('',*,*,#195,.T.);
#240=ORIENTED_EDGE('',*,*,#194,.F.);
#241=ORIENTED_EDGE('',*,*,#195,.F.);
#242=ORIENTED_EDGE('',*,*,#196,.F.);
#243=ORIENTED_EDGE('',*,*,#197,.T.);
#244=ORIENTED_EDGE('',*,*,#198,.F.);
#245=ORIENTED_EDGE('',*,*,#197,.F.);
#246=ORIENTED_EDGE('',*,*,#196,.T.);
#247=ORIENTED_EDGE('',*,*,#193,.T.);
#248=ORIENTED_EDGE('',*,*,#199,.F.);
#249=ORIENTED_EDGE('',*,*,#200,.T.);
#250=ORIENTED_EDGE('',*,*,#201,.T.);
#251=ORIENTED_EDGE('',*,*,#202,.F.);
#252=ORIENTED_EDGE('',*,*,#203,.F.);
#253=ORIENTED_EDGE('',*,*,#204,.T.);
#254=ORIENTED_EDGE('',*,*,#205,.T.);
#255=ORIENTED_EDGE('',*,*,#200,.F.);
#256=ORIENTED_EDGE('',*,*,#206,.F.);
#257=ORIENTED_EDGE('',*,*,#207,.T.);
#258=ORIENTED_EDGE('',*,*,#208,.T.);
#259=ORIENTED_EDGE('',*,*,#204,.F.);
#260=ORIENTED_EDGE('',*,*,#209,.F.);
#261=ORIENTED_EDGE('',*,*,#202,.T.);
#262=ORIENTED_EDGE('',*,*,#210,.T.);
#263=ORIENTED_EDGE('',*,*,#207,.F.);
#264=ORIENTED_EDGE('',*,*,#210,.F.);
#265=ORIENTED_EDGE('',*,*,#201,.F.);
#266=ORIENTED_EDGE('',*,*,#205,.F.);
#267=ORIENTED_EDGE('',*,*,#208,.F.);
#268=ORIENTED_EDGE('',*,*,#211,.F.);
#269=ORIENTED_EDGE('',*,*,#212,.T.);
#270=ORIENTED_EDGE('',*,*,#213,.F.);
#271=ORIENTED_EDGE('',*,*,#214,.F.);
#272=ORIENTED_EDGE('',*,*,#215,.F.);
#273=ORIENTED_EDGE('',*,*,#214,.T.);
#274=ORIENTED_EDGE('',*,*,#216,.F.);
#275=ORIENTED_EDGE('',*,*,#217,.F.);
#276=ORIENTED_EDGE('',*,*,#218,.F.);
#277=ORIENTED_EDGE('',*,*,#217,.T.);
#278=ORIENTED_EDGE('',*,*,#219,.F.);
#279=ORIENTED_EDGE('',*,*,#220,.F.);
#280=ORIENTED_EDGE('',*,*,#221,.F.);
#281=ORIENTED_EDGE('',*,*,#220,.T.);
#282=ORIENTED_EDGE('',*,*,#222,.F.);
#283=ORIENTED_EDGE('',*,*,#223,.F.);
#284=ORIENTED_EDGE('',*,*,#224,.F.);
#285=ORIENTED_EDGE('',*,*,#223,.T.);
#286=ORIENTED_EDGE('',*,*,#225,.F.);
#287=ORIENTED_EDGE('',*,*,#226,.F.);
#288=ORIENTED_EDGE('',*,*,#227,.F.);
#289=ORIENTED_EDGE('',*,*,#226,.T.);
#290=ORIENTED_EDGE('',*,*,#228,.F.);
#291=ORIENTED_EDGE('',*,*,#212,.F.);
#292=ORIENTED_EDGE('',*,*,#228,.T.);
#293=ORIENTED_EDGE('',*,*,#225,.T.);
#294=ORIENTED_EDGE('',*,*,#222,.T.);
#295=ORIENTED_EDGE('',*,*,#219,.T.);
#296=ORIENTED_EDGE('',*,*,#216,.T.);
#297=ORIENTED_EDGE('',*,*,#213,.T.);
#298=ORIENTED_EDGE('',*,*,#199,.T.);
#299=ORIENTED_EDGE('',*,*,#209,.T.);
#300=ORIENTED_EDGE('',*,*,#206,.T.);
#301=ORIENTED_EDGE('',*,*,#203,.T.);
#302=ORIENTED_EDGE('',*,*,#211,.T.);
#303=ORIENTED_EDGE('',*,*,#229,.F.);
#304=ORIENTED_EDGE('',*,*,#215,.T.);
#305=ORIENTED_EDGE('',*,*,#230,.F.);
#306=ORIENTED_EDGE('',*,*,#218,.T.);
#307=ORIENTED_EDGE('',*,*,#231,.F.);
#308=ORIENTED_EDGE('',*,*,#221,.T.);
#309=ORIENTED_EDGE('',*,*,#232,.F.);
#310=ORIENTED_EDGE('',*,*,#224,.T.);
#311=ORIENTED_EDGE('',*,*,#233,.F.);
#312=ORIENTED_EDGE('',*,*,#227,.T.);
#313=ORIENTED_EDGE('',*,*,#234,.F.);
#314=ORIENTED_EDGE('',*,*,#230,.T.);
#315=ORIENTED_EDGE('',*,*,#235,.T.);
#316=ORIENTED_EDGE('',*,*,#236,.F.);
#317=ORIENTED_EDGE('',*,*,#235,.F.);
#318=ORIENTED_EDGE('',*,*,#231,.T.);
#319=ORIENTED_EDGE('',*,*,#232,.T.);
#320=ORIENTED_EDGE('',*,*,#233,.T.);
#321=ORIENTED_EDGE('',*,*,#234,.T.);
#322=ORIENTED_EDGE('',*,*,#229,.T.);
#323=ORIENTED_EDGE('',*,*,#236,.T.);
#324=ORIENTED_EDGE('',*,*,#198,.T.);
#325=(
BOUNDED_SURFACE()
B_SPLINE_SURFACE(1,2,((#500,#501,#502,#503,#504,#505,#506,#507,#508),(#509,
#510,#511,#512,#513,#514,#515,#516,#517)),.UNSPECIFIED.,.F.,.T.,.F.)
B_SPLINE_SURFACE_WITH_KNOTS((2,2),(3,2,2,2,3),(0.,0.4),(-3.14159265358979,
-1.5707963267949,0.,1.5707963267949,3.14159265358979),.UNSPECIFIED.)
GEOMETRIC_REPRESENTATION_ITEM()
RATIONAL_B_SPLINE_SURFACE(((1.,0.707106781186548,1.,0.707106781186548,1.,
0.707106781186548,1.,0.707106781186548,1.),(1.,0.707106781186548,1.,0.707106781186548,
1.,0.707106781186548,1.,0.707106781186548,1.)))
REPRESENTATION_ITEM('')
SURFACE()
);
#326=(
BOUNDED_SURFACE()
B_SPLINE_SURFACE(1,2,((#524,#525,#526,#527,#528,#529,#530,#531,#532),(#533,
#534,#535,#536,#537,#538,#539,#540,#541)),.UNSPECIFIED.,.F.,.T.,.F.)
B_SPLINE_SURFACE_WITH_KNOTS((2,2),(3,2,2,2,3),(0.,0.285714285714286),(-3.14159265358979,
-1.5707963267949,0.,1.5707963267949,3.14159265358979),.UNSPECIFIED.)
GEOMETRIC_REPRESENTATION_ITEM()
RATIONAL_B_SPLINE_SURFACE(((1.,0.707106781186548,1.,0.707106781186548,1.,
0.707106781186548,1.,0.707106781186548,1.),(1.,0.707106781186548,1.,0.707106781186548,
1.,0.707106781186548,1.,0.707106781186548,1.)))
REPRESENTATION_ITEM('')
SURFACE()
);
#327=ADVANCED_FACE('',(#47),#325,.T.);
#328=ADVANCED_FACE('',(#48),#26,.T.);
#329=ADVANCED_FACE('',(#49),#326,.F.);
#330=ADVANCED_FACE('',(#50,#23),#27,.T.);
#331=ADVANCED_FACE('',(#51),#28,.F.);
#332=ADVANCED_FACE('',(#52),#29,.F.);
#333=ADVANCED_FACE('',(#53),#30,.F.);
#334=ADVANCED_FACE('',(#54),#31,.F.);
#335=ADVANCED_FACE('',(#55),#32,.F.);
#336=ADVANCED_FACE('',(#56),#33,.T.);
#337=ADVANCED_FACE('',(#57),#34,.T.);
#338=ADVANCED_FACE('',(#58),#35,.T.);
#339=ADVANCED_FACE('',(#59),#36,.T.);
#340=ADVANCED_FACE('',(#60),#37,.T.);
#341=ADVANCED_FACE('',(#61),#38,.T.);
#342=ADVANCED_FACE('',(#62,#24),#39,.T.);
#343=ADVANCED_FACE('',(#63),#40,.T.);
#344=ADVANCED_FACE('',(#64),#41,.T.);
#345=ADVANCED_FACE('',(#65),#42,.T.);
#346=ADVANCED_FACE('',(#66),#43,.T.);
#347=ADVANCED_FACE('',(#67),#44,.T.);
#348=ADVANCED_FACE('',(#68),#45,.T.);
#349=ADVANCED_FACE('',(#69),#15,.T.);
#350=ADVANCED_FACE('',(#70,#25),#46,.T.);
#351=CLOSED_SHELL('',(#327,#328,#329,#330,#331,#332,#333,#334,#335,#336,
#337,#338,#339,#340,#341,#342,#343,#344,#345,#346,#347,#348,#349,#350));
#352=DERIVED_UNIT_ELEMENT(#354,1.);
#353=DERIVED_UNIT_ELEMENT(#632,-3.);
#354=(
MASS_UNIT()
NAMED_UNIT(*)
SI_UNIT(.KILO.,.GRAM.)
);
#355=DERIVED_UNIT((#352,#353));
#356=MEASURE_REPRESENTATION_ITEM('density measure',
POSITIVE_RATIO_MEASURE(7850.),#355);
#357=PROPERTY_DEFINITION_REPRESENTATION(#362,#359);
#358=PROPERTY_DEFINITION_REPRESENTATION(#363,#360);
#359=REPRESENTATION('material name',(#361),#629);
#360=REPRESENTATION('density',(#356),#629);
#361=DESCRIPTIVE_REPRESENTATION_ITEM('Acier','Acier');
#362=PROPERTY_DEFINITION('material property','material name',#639);
#363=PROPERTY_DEFINITION('material property','density of part',#639);
#364=AXIS2_PLACEMENT_3D('placement',#499,#398,#399);
#365=AXIS2_PLACEMENT_3D('',#519,#400,#401);
#366=AXIS2_PLACEMENT_3D('',#522,#403,#404);
#367=AXIS2_PLACEMENT_3D('',#523,#405,#406);
#368=AXIS2_PLACEMENT_3D('',#543,#407,#408);
#369=AXIS2_PLACEMENT_3D('',#546,#410,#411);
#370=AXIS2_PLACEMENT_3D('',#547,#412,#413);
#371=AXIS2_PLACEMENT_3D('',#548,#414,#415);
#372=AXIS2_PLACEMENT_3D('',#557,#420,#421);
#373=AXIS2_PLACEMENT_3D('',#563,#425,#426);
#374=AXIS2_PLACEMENT_3D('',#569,#430,#431);
#375=AXIS2_PLACEMENT_3D('',#572,#434,#435);
#376=AXIS2_PLACEMENT_3D('',#573,#436,#437);
#377=AXIS2_PLACEMENT_3D('',#582,#442,#443);
#378=AXIS2_PLACEMENT_3D('',#588,#447,#448);
#379=AXIS2_PLACEMENT_3D('',#594,#452,#453);
#380=AXIS2_PLACEMENT_3D('',#600,#457,#458);
#381=AXIS2_PLACEMENT_3D('',#606,#462,#463);
#382=AXIS2_PLACEMENT_3D('',#609,#466,#467);
#383=AXIS2_PLACEMENT_3D('',#610,#468,#469);
#384=AXIS2_PLACEMENT_3D('',#611,#470,#471);
#385=AXIS2_PLACEMENT_3D('',#612,#472,#473);
#386=AXIS2_PLACEMENT_3D('',#613,#474,#475);
#387=AXIS2_PLACEMENT_3D('',#614,#476,#477);
#388=AXIS2_PLACEMENT_3D('',#615,#478,#479);
#389=AXIS2_PLACEMENT_3D('',#616,#480,#481);
#390=AXIS2_PLACEMENT_3D('',#617,#482,#483);
#391=AXIS2_PLACEMENT_3D('',#618,#484,#485);
#392=AXIS2_PLACEMENT_3D('',#619,#486,#487);
#393=AXIS2_PLACEMENT_3D('',#620,#488,#489);
#394=AXIS2_PLACEMENT_3D('',#621,#490,#491);
#395=AXIS2_PLACEMENT_3D('',#622,#492,#493);
#396=AXIS2_PLACEMENT_3D('',#625,#495,#496);
#397=AXIS2_PLACEMENT_3D('',#626,#497,#498);
#398=DIRECTION('axis',(0.,0.,1.));
#399=DIRECTION('refdir',(1.,0.,0.));
#400=DIRECTION('center_axis',(0.,0.,1.));
#401=DIRECTION('ref_axis',(1.,0.,0.));
#402=DIRECTION('',(0.,0.,1.));
#403=DIRECTION('center_axis',(0.,0.,1.));
#404=DIRECTION('ref_axis',(1.,0.,0.));
#405=DIRECTION('center_axis',(0.,0.,-1.));
#406=DIRECTION('ref_axis',(1.,0.,0.));
#407=DIRECTION('center_axis',(0.,0.,-1.));
#408=DIRECTION('ref_axis',(1.,0.,0.));
#409=DIRECTION('',(0.,0.,1.));
#410=DIRECTION('center_axis',(0.,0.,1.));
#411=DIRECTION('ref_axis',(1.,0.,0.));
#412=DIRECTION('center_axis',(0.,0.,-1.));
#413=DIRECTION('ref_axis',(1.,0.,0.));
#414=DIRECTION('center_axis',(-1.,0.,0.));
#415=DIRECTION('ref_axis',(0.,1.,0.));
#416=DIRECTION('',(0.,1.,0.));
#417=DIRECTION('',(0.,0.,-1.));
#418=DIRECTION('',(0.,1.,0.));
#419=DIRECTION('',(0.,0.,-1.));
#420=DIRECTION('center_axis',(-8.74191357972564E-17,-1.,0.));
#421=DIRECTION('ref_axis',(-1.,8.74191357972564E-17,0.));
#422=DIRECTION('',(-1.,8.74191357972564E-17,0.));
#423=DIRECTION('',(0.,0.,-1.));
#424=DIRECTION('',(-1.,8.74191357972564E-17,0.));
#425=DIRECTION('center_axis',(1.,0.,0.));
#426=DIRECTION('ref_axis',(0.,-1.,0.));
#427=DIRECTION('',(0.,-1.,0.));
#428=DIRECTION('',(0.,0.,-1.));
#429=DIRECTION('',(0.,-1.,0.));
#430=DIRECTION('center_axis',(-8.74191357972564E-17,1.,0.));
#431=DIRECTION('ref_axis',(1.,8.74191357972564E-17,0.));
#432=DIRECTION('',(1.,8.74191357972564E-17,0.));
#433=DIRECTION('',(1.,8.74191357972564E-17,0.));
#434=DIRECTION('center_axis',(0.,0.,-1.));
#435=DIRECTION('ref_axis',(-1.,0.,0.));
#436=DIRECTION('center_axis',(-6.66133814775094E-16,-1.,0.));
#437=DIRECTION('ref_axis',(1.,-6.66133814775094E-16,0.));
#438=DIRECTION('',(-1.,6.66133814775094E-16,0.));
#439=DIRECTION('',(0.,0.,1.));
#440=DIRECTION('',(1.,-6.66133814775094E-16,0.));
#441=DIRECTION('',(0.,0.,1.));
#442=DIRECTION('center_axis',(-0.866025403784439,-0.5,0.));
#443=DIRECTION('ref_axis',(0.5,-0.866025403784439,0.));
#444=DIRECTION('',(-0.5,0.866025403784439,0.));
#445=DIRECTION('',(0.5,-0.866025403784439,0.));
#446=DIRECTION('',(0.,0.,1.));
#447=DIRECTION('center_axis',(-0.866025403784438,0.5,0.));
#448=DIRECTION('ref_axis',(-0.5,-0.866025403784438,0.));
#449=DIRECTION('',(0.5,0.866025403784438,0.));
#450=DIRECTION('',(-0.5,-0.866025403784438,0.));
#451=DIRECTION('',(0.,0.,1.));
#452=DIRECTION('center_axis',(2.22044604925031E-16,1.,0.));
#453=DIRECTION('ref_axis',(-1.,2.22044604925031E-16,0.));
#454=DIRECTION('',(1.,-2.22044604925031E-16,0.));
#455=DIRECTION('',(-1.,2.22044604925031E-16,0.));
#456=DIRECTION('',(0.,0.,1.));
#457=DIRECTION('center_axis',(0.866025403784439,0.5,0.));
#458=DIRECTION('ref_axis',(-0.5,0.866025403784439,0.));
#459=DIRECTION('',(0.5,-0.866025403784439,0.));
#460=DIRECTION('',(-0.5,0.866025403784439,0.));
#461=DIRECTION('',(0.,0.,1.));
#462=DIRECTION('center_axis',(0.866025403784438,-0.5,0.));
#463=DIRECTION('ref_axis',(0.5,0.866025403784438,0.));
#464=DIRECTION('',(-0.5,-0.866025403784438,0.));
#465=DIRECTION('',(0.5,0.866025403784438,0.));
#466=DIRECTION('center_axis',(0.,0.,1.));
#467=DIRECTION('ref_axis',(1.,0.,0.));
#468=DIRECTION('center_axis',(0.,0.,1.));
#469=DIRECTION('ref_axis',(1.,0.,0.));
#470=DIRECTION('center_axis',(0.,0.,-1.));
#471=DIRECTION('ref_axis',(1.,0.,0.));
#472=DIRECTION('center_axis',(0.,0.,1.));
#473=DIRECTION('ref_axis',(1.,0.,0.));
#474=DIRECTION('center_axis',(0.,0.,-1.));
#475=DIRECTION('ref_axis',(1.,0.,0.));
#476=DIRECTION('center_axis',(0.,0.,1.));
#477=DIRECTION('ref_axis',(1.,0.,0.));
#478=DIRECTION('center_axis',(0.,0.,-1.));
#479=DIRECTION('ref_axis',(1.,0.,0.));
#480=DIRECTION('center_axis',(0.,0.,1.));
#481=DIRECTION('ref_axis',(1.,0.,0.));
#482=DIRECTION('center_axis',(0.,0.,-1.));
#483=DIRECTION('ref_axis',(1.,0.,0.));
#484=DIRECTION('center_axis',(0.,0.,1.));
#485=DIRECTION('ref_axis',(1.,0.,0.));
#486=DIRECTION('center_axis',(0.,0.,-1.));
#487=DIRECTION('ref_axis',(1.,0.,0.));
#488=DIRECTION('center_axis',(0.,0.,1.));
#489=DIRECTION('ref_axis',(1.,0.,0.));
#490=DIRECTION('center_axis',(0.,0.,-1.));
#491=DIRECTION('ref_axis',(1.,0.,0.));
#492=DIRECTION('center_axis',(0.,0.,1.));
#493=DIRECTION('ref_axis',(1.,0.,0.));
#494=DIRECTION('',(0.,0.,-1.));
#495=DIRECTION('center_axis',(0.,0.,-1.));
#496=DIRECTION('ref_axis',(1.,0.,0.));
#497=DIRECTION('center_axis',(0.,0.,-1.));
#498=DIRECTION('ref_axis',(-1.,0.,0.));
#499=CARTESIAN_POINT('',(0.,0.,0.));
#500=CARTESIAN_POINT('Ctrl Pts',(-10.,0.,-4.));
#501=CARTESIAN_POINT('Ctrl Pts',(-10.,-8.5,-4.));
#502=CARTESIAN_POINT('Ctrl Pts',(0.,-8.5,-4.));
#503=CARTESIAN_POINT('Ctrl Pts',(10.,-8.5,-4.));
#504=CARTESIAN_POINT('Ctrl Pts',(10.,0.,-4.));
#505=CARTESIAN_POINT('Ctrl Pts',(10.,8.5,-4.));
#506=CARTESIAN_POINT('Ctrl Pts',(0.,8.5,-4.));
#507=CARTESIAN_POINT('Ctrl Pts',(-10.,8.5,-4.));
#508=CARTESIAN_POINT('Ctrl Pts',(-10.,0.,-4.));
#509=CARTESIAN_POINT('Ctrl Pts',(-10.,0.,0.));
#510=CARTESIAN_POINT('Ctrl Pts',(-10.,-8.5,0.));
#511=CARTESIAN_POINT('Ctrl Pts',(0.,-8.5,0.));
#512=CARTESIAN_POINT('Ctrl Pts',(10.,-8.5,0.));
#513=CARTESIAN_POINT('Ctrl Pts',(10.,0.,0.));
#514=CARTESIAN_POINT('Ctrl Pts',(10.,8.5,0.));
#515=CARTESIAN_POINT('Ctrl Pts',(0.,8.5,0.));
#516=CARTESIAN_POINT('Ctrl Pts',(-10.,8.5,0.));
#517=CARTESIAN_POINT('Ctrl Pts',(-10.,0.,0.));
#518=CARTESIAN_POINT('',(-10.,1.04094977927525E-15,-4.));
#519=CARTESIAN_POINT('Origin',(0.,0.,-4.));
#520=CARTESIAN_POINT('',(-10.,1.04094977927525E-15,0.));
#521=CARTESIAN_POINT('',(-10.,-1.04094977927525E-15,-4.));
#522=CARTESIAN_POINT('Origin',(0.,0.,0.));
#523=CARTESIAN_POINT('Origin',(0.,0.,0.));
#524=CARTESIAN_POINT('Ctrl Pts',(-14.,0.,0.));
#525=CARTESIAN_POINT('Ctrl Pts',(-14.,12.5,0.));
#526=CARTESIAN_POINT('Ctrl Pts',(0.,12.5,0.));
#527=CARTESIAN_POINT('Ctrl Pts',(14.,12.5,0.));
#528=CARTESIAN_POINT('Ctrl Pts',(14.,0.,0.));
#529=CARTESIAN_POINT('Ctrl Pts',(14.,-12.5,0.));
#530=CARTESIAN_POINT('Ctrl Pts',(0.,-12.5,0.));
#531=CARTESIAN_POINT('Ctrl Pts',(-14.,-12.5,0.));
#532=CARTESIAN_POINT('Ctrl Pts',(-14.,0.,0.));
#533=CARTESIAN_POINT('Ctrl Pts',(-14.,0.,-4.));
#534=CARTESIAN_POINT('Ctrl Pts',(-14.,12.5,-4.));
#535=CARTESIAN_POINT('Ctrl Pts',(0.,12.5,-4.));
#536=CARTESIAN_POINT('Ctrl Pts',(14.,12.5,-4.));
#537=CARTESIAN_POINT('Ctrl Pts',(14.,0.,-4.));
#538=CARTESIAN_POINT('Ctrl Pts',(14.,-12.5,-4.));
#539=CARTESIAN_POINT('Ctrl Pts',(0.,-12.5,-4.));
#540=CARTESIAN_POINT('Ctrl Pts',(-14.,-12.5,-4.));
#541=CARTESIAN_POINT('Ctrl Pts',(-14.,0.,-4.));
#542=CARTESIAN_POINT('',(-14.,1.53080849893419E-15,-4.));
#543=CARTESIAN_POINT('Origin',(0.,0.,-4.));
#544=CARTESIAN_POINT('',(-14.,1.53080849893419E-15,0.));
#545=CARTESIAN_POINT('',(-14.,1.53080849893419E-15,0.));
#546=CARTESIAN_POINT('Origin',(0.,0.,0.));
#547=CARTESIAN_POINT('Origin',(0.,0.,-4.));
#548=CARTESIAN_POINT('Origin',(-6.34999999999988,-6.34999999999993,19.));
#549=CARTESIAN_POINT('',(-6.34999999999988,-6.34999999999993,19.));
#550=CARTESIAN_POINT('',(-6.34999999999988,6.35000000000007,19.));
#551=CARTESIAN_POINT('',(-6.34999999999988,-3.17499999999997,19.));
#552=CARTESIAN_POINT('',(-6.34999999999988,-6.34999999999993,9.));
#553=CARTESIAN_POINT('',(-6.34999999999988,-6.34999999999993,19.));
#554=CARTESIAN_POINT('',(-6.34999999999988,6.35000000000007,9.));
#555=CARTESIAN_POINT('',(-6.34999999999988,-6.34999999999993,9.));
#556=CARTESIAN_POINT('',(-6.34999999999988,6.35000000000007,19.));
#557=CARTESIAN_POINT('Origin',(6.35000000000012,-6.34999999999993,19.));
#558=CARTESIAN_POINT('',(6.35000000000012,-6.34999999999993,19.));
#559=CARTESIAN_POINT('',(3.17500000000006,-6.34999999999993,19.));
#560=CARTESIAN_POINT('',(6.35000000000012,-6.34999999999993,9.));
#561=CARTESIAN_POINT('',(6.35000000000012,-6.34999999999993,19.));
#562=CARTESIAN_POINT('',(6.35000000000012,-6.34999999999993,9.));
#563=CARTESIAN_POINT('Origin',(6.35000000000012,6.35000000000007,19.));
#564=CARTESIAN_POINT('',(6.35000000000012,6.35000000000007,19.));
#565=CARTESIAN_POINT('',(6.35000000000012,3.17500000000003,19.));
#566=CARTESIAN_POINT('',(6.35000000000012,6.35000000000007,9.));
#567=CARTESIAN_POINT('',(6.35000000000012,6.35000000000007,19.));
#568=CARTESIAN_POINT('',(6.35000000000012,6.35000000000007,9.));
#569=CARTESIAN_POINT('Origin',(-6.34999999999988,6.35000000000007,19.));
#570=CARTESIAN_POINT('',(-3.17499999999994,6.35000000000007,19.));
#571=CARTESIAN_POINT('',(-6.34999999999988,6.35000000000007,9.));
#572=CARTESIAN_POINT('Origin',(1.21014309684142E-13,6.88338275267597E-14,
9.));
#573=CARTESIAN_POINT('Origin',(-10.,-17.3205080756888,9.));
#574=CARTESIAN_POINT('',(9.99999999999999,-17.3205080756888,9.));
#575=CARTESIAN_POINT('',(-10.0000001490116,-17.3205083337844,9.));
#576=CARTESIAN_POINT('',(-5.00000000000001,-17.3205080756888,9.));
#577=CARTESIAN_POINT('',(9.99999999999999,-17.3205080756888,19.));
#578=CARTESIAN_POINT('',(9.99999999999999,-17.3205080756888,9.));
#579=CARTESIAN_POINT('',(-10.,-17.3205080756888,19.));
#580=CARTESIAN_POINT('',(-10.,-17.3205080756888,19.));
#581=CARTESIAN_POINT('',(-10.,-17.3205080756888,9.));
#582=CARTESIAN_POINT('Origin',(-20.,7.7715611723761E-15,9.));
#583=CARTESIAN_POINT('',(-20.,7.7715611723761E-15,9.));
#584=CARTESIAN_POINT('',(-17.5,-4.33012701892219,9.));
#585=CARTESIAN_POINT('',(-20.,8.88178419700125E-15,19.));
#586=CARTESIAN_POINT('',(-20.,7.7715611723761E-15,19.));
#587=CARTESIAN_POINT('',(-20.,7.7715611723761E-15,9.));
#588=CARTESIAN_POINT('Origin',(-10.,17.3205080756888,9.));
#589=CARTESIAN_POINT('',(-10.,17.3205080756888,9.));
#590=CARTESIAN_POINT('',(-12.5,12.9903810567666,9.));
#591=CARTESIAN_POINT('',(-9.99999999999999,17.3205080756888,19.));
#592=CARTESIAN_POINT('',(-10.,17.3205080756888,19.));
#593=CARTESIAN_POINT('',(-10.,17.3205080756888,9.));
#594=CARTESIAN_POINT('Origin',(10.,17.3205080756888,9.));
#595=CARTESIAN_POINT('',(10.,17.3205080756888,9.));
#596=CARTESIAN_POINT('',(5.,17.3205080756888,9.));
#597=CARTESIAN_POINT('',(10.,17.3205080756888,19.));
#598=CARTESIAN_POINT('',(10.,17.3205080756888,19.));
#599=CARTESIAN_POINT('',(10.,17.3205080756888,9.));
#600=CARTESIAN_POINT('Origin',(20.,0.,9.));
#601=CARTESIAN_POINT('',(20.,0.,9.));
#602=CARTESIAN_POINT('',(17.5,4.33012701892219,9.));
#603=CARTESIAN_POINT('',(20.,0.,19.));
#604=CARTESIAN_POINT('',(20.,0.,19.));
#605=CARTESIAN_POINT('',(20.,0.,9.));
#606=CARTESIAN_POINT('Origin',(9.99999999999999,-17.3205080756888,9.));
#607=CARTESIAN_POINT('',(12.5,-12.9903810567666,9.));
#608=CARTESIAN_POINT('',(9.99999999999999,-17.3205080756888,19.));
#609=CARTESIAN_POINT('Origin',(0.,-2.22044604925031E-15,19.));
#610=CARTESIAN_POINT('Origin',(0.,0.,9.));
#611=CARTESIAN_POINT('Origin',(0.,0.,9.));
#612=CARTESIAN_POINT('Origin',(0.,0.,9.));
#613=CARTESIAN_POINT('Origin',(0.,0.,9.));
#614=CARTESIAN_POINT('Origin',(0.,0.,9.));
#615=CARTESIAN_POINT('Origin',(0.,0.,9.));
#616=CARTESIAN_POINT('Origin',(0.,0.,9.));
#617=CARTESIAN_POINT('Origin',(0.,0.,9.));
#618=CARTESIAN_POINT('Origin',(0.,0.,9.));
#619=CARTESIAN_POINT('Origin',(0.,0.,9.));
#620=CARTESIAN_POINT('Origin',(0.,0.,9.));
#621=CARTESIAN_POINT('Origin',(0.,0.,9.));
#622=CARTESIAN_POINT('Origin',(0.,0.,20.));
#623=CARTESIAN_POINT('',(-20.,-2.44929359829471E-15,0.));
#624=CARTESIAN_POINT('',(-20.,-2.44929359829471E-15,20.));
#625=CARTESIAN_POINT('Origin',(0.,0.,0.));
#626=CARTESIAN_POINT('Origin',(0.,0.,0.));
#627=UNCERTAINTY_MEASURE_WITH_UNIT(LENGTH_MEASURE(0.01),#631,
'DISTANCE_ACCURACY_VALUE',
'Maximum model space distance between geometric entities at asserted c
onnectivities');
#628=UNCERTAINTY_MEASURE_WITH_UNIT(LENGTH_MEASURE(0.01),#631,
'DISTANCE_ACCURACY_VALUE',
'Maximum model space distance between geometric entities at asserted c
onnectivities');
#629=(
GEOMETRIC_REPRESENTATION_CONTEXT(3)
GLOBAL_UNCERTAINTY_ASSIGNED_CONTEXT((#627))
GLOBAL_UNIT_ASSIGNED_CONTEXT((#631,#633,#634))
REPRESENTATION_CONTEXT('','3D')
);
#630=(
GEOMETRIC_REPRESENTATION_CONTEXT(3)
GLOBAL_UNCERTAINTY_ASSIGNED_CONTEXT((#628))
GLOBAL_UNIT_ASSIGNED_CONTEXT((#631,#633,#634))
REPRESENTATION_CONTEXT('','3D')
);
#631=(
LENGTH_UNIT()
NAMED_UNIT(*)
SI_UNIT(.MILLI.,.METRE.)
);
#632=(
LENGTH_UNIT()
NAMED_UNIT(*)
SI_UNIT($,.METRE.)
);
#633=(
NAMED_UNIT(*)
PLANE_ANGLE_UNIT()
SI_UNIT($,.RADIAN.)
);
#634=(
NAMED_UNIT(*)
SI_UNIT($,.STERADIAN.)
SOLID_ANGLE_UNIT()
);
#635=SHAPE_DEFINITION_REPRESENTATION(#636,#637);
#636=PRODUCT_DEFINITION_SHAPE('',$,#639);
#637=SHAPE_REPRESENTATION('',(#364),#629);
#638=PRODUCT_DEFINITION_CONTEXT('part definition',#643,'design');
#639=PRODUCT_DEFINITION('douille adp','douille adp v1',#640,#638);
#640=PRODUCT_DEFINITION_FORMATION('',$,#645);
#641=PRODUCT_RELATED_PRODUCT_CATEGORY('douille adp v1','douille adp v1',
(#645));
#642=APPLICATION_PROTOCOL_DEFINITION('international standard',
'automotive_design',2009,#643);
#643=APPLICATION_CONTEXT(
'Core Data for Automotive Mechanical Design Process');
#644=PRODUCT_CONTEXT('part definition',#643,'mechanical');
#645=PRODUCT('douille adp','douille adp v1',$,(#644));
#646=PRESENTATION_STYLE_ASSIGNMENT((#647));
#647=SURFACE_STYLE_USAGE(.BOTH.,#648);
#648=SURFACE_SIDE_STYLE('',(#649));
#649=SURFACE_STYLE_FILL_AREA(#650);
#650=FILL_AREA_STYLE('Acier - Satin\X\E9',(#651));
#651=FILL_AREA_STYLE_COLOUR('Acier - Satin\X\E9',#652);
#652=COLOUR_RGB('Acier - Satin\X\E9',0.627450980392157,0.627450980392157,
0.627450980392157);
ENDSEC;
END-ISO-10303-21;
