ISO-10303-21;
HEADER;
FILE_DESCRIPTION (( 'STEP AP214' ),
    '1' );
FILE_NAME ('Tête de ressort de rappel.STEP',
    '2022-01-27T12:46:32',
    ( '' ),
    ( '' ),
    'SwSTEP 2.0',
    'SolidWorks 2014',
    '' );
FILE_SCHEMA (( 'AUTOMOTIVE_DESIGN' ));
ENDSEC;

DATA;
#1 = VECTOR ( 'NONE', #156, 1000.000000000000000 ) ;
#2 =( LENGTH_UNIT ( ) NAMED_UNIT ( * ) SI_UNIT ( .MILLI., .METRE. ) );
#3 = STYLED_ITEM ( 'NONE', ( #197 ), #73 ) ;
#4 = CIRCLE ( 'NONE', #213, 4.000000000000000000 ) ;
#5 = ADVANCED_FACE ( 'NONE', ( #60 ), #196, .T. ) ;
#6 = PRODUCT_RELATED_PRODUCT_CATEGORY ( 'part', '', ( #42 ) ) ;
#7 = ORIENTED_EDGE ( 'NONE', *, *, #78, .F. ) ;
#8 = AXIS2_PLACEMENT_3D ( 'NONE', #131, #18, #200 ) ;
#9 = AXIS2_PLACEMENT_3D ( 'NONE', #20, #198, #176 ) ;
#10 = DIRECTION ( 'NONE',  ( -1.000000000000000000, 0.0000000000000000000, 0.0000000000000000000 ) ) ;
#11 = CIRCLE ( 'NONE', #194, 4.000000000000000000 ) ;
#12 = EDGE_CURVE ( 'NONE', #128, #184, #201, .T. ) ;
#13 = DIRECTION ( 'NONE',  ( -1.000000000000000000, 0.0000000000000000000, 0.0000000000000000000 ) ) ;
#14 = CARTESIAN_POINT ( 'NONE',  ( -4.000000000000000000, 0.0000000000000000000, 3.000000000000000000 ) ) ;
#15 = EDGE_CURVE ( 'NONE', #99, #212, #11, .T. ) ;
#16 = ADVANCED_FACE ( 'NONE', ( #191 ), #25, .T. ) ;
#17 = CIRCLE ( 'NONE', #109, 1.500000000000000200 ) ;
#18 = DIRECTION ( 'NONE',  ( 0.0000000000000000000, 0.0000000000000000000, 1.000000000000000000 ) ) ;
#19 = CARTESIAN_POINT ( 'NONE',  ( 0.0000000000000000000, 0.0000000000000000000, 3.000000000000000000 ) ) ;
#20 = CARTESIAN_POINT ( 'NONE',  ( 0.0000000000000000000, 0.0000000000000000000, 3.000000000000000000 ) ) ;
#21 = AXIS2_PLACEMENT_3D ( 'NONE', #157, #98, #65 ) ;
#22 = DIRECTION ( 'NONE',  ( 0.0000000000000000000, 0.0000000000000000000, 1.000000000000000000 ) ) ;
#23 = SURFACE_STYLE_FILL_AREA ( #66 ) ;
#24 = AXIS2_PLACEMENT_3D ( 'NONE', #172, #113, #29 ) ;
#25 = CYLINDRICAL_SURFACE ( 'NONE', #162, 4.000000000000000000 ) ;
#26 = EDGE_CURVE ( 'NONE', #212, #99, #4, .T. ) ;
#27 = VECTOR ( 'NONE', #38, 1000.000000000000000 ) ;
#28 = FACE_BOUND ( 'NONE', #119, .T. ) ;
#29 = DIRECTION ( 'NONE',  ( 1.000000000000000000, 0.0000000000000000000, 0.0000000000000000000 ) ) ;
#30 = DIRECTION ( 'NONE',  ( 0.0000000000000000000, 0.0000000000000000000, 1.000000000000000000 ) ) ;
#31 = LINE ( 'NONE', #144, #179 ) ;
#32 = AXIS2_PLACEMENT_3D ( 'NONE', #70, #148, #34 ) ;
#33 =( GEOMETRIC_REPRESENTATION_CONTEXT ( 3 ) GLOBAL_UNCERTAINTY_ASSIGNED_CONTEXT ( ( #103 ) ) GLOBAL_UNIT_ASSIGNED_CONTEXT ( ( #116, #89, #204 ) ) REPRESENTATION_CONTEXT ( 'NONE', 'WORKASPACE' ) );
#34 = DIRECTION ( 'NONE',  ( -1.000000000000000000, 0.0000000000000000000, 0.0000000000000000000 ) ) ;
#35 = ORIENTED_EDGE ( 'NONE', *, *, #151, .F. ) ;
#36 = COLOUR_RGB ( '',0.7921568627450980000, 0.8196078431372548800, 0.9333333333333333500 ) ;
#37 = DIRECTION ( 'NONE',  ( 0.0000000000000000000, 0.0000000000000000000, 1.000000000000000000 ) ) ;
#38 = DIRECTION ( 'NONE',  ( -0.0000000000000000000, -0.0000000000000000000, -1.000000000000000000 ) ) ;
#39 = ADVANCED_FACE ( 'NONE', ( #97, #28 ), #126, .T. ) ;
#40 = MECHANICAL_DESIGN_GEOMETRIC_PRESENTATION_REPRESENTATION (  '', ( #166 ), #189 ) ;
#41 = EDGE_LOOP ( 'NONE', ( #96, #181 ) ) ;
#42 = PRODUCT ( 'Tête de ressort de rappel', 'Tête de ressort de rappel', '', ( #123 ) ) ;
#43 = ORIENTED_EDGE ( 'NONE', *, *, #26, .F. ) ;
#44 = FACE_OUTER_BOUND ( 'NONE', #130, .T. ) ;
#45 = CARTESIAN_POINT ( 'NONE',  ( 0.0000000000000000000, 0.0000000000000000000, 3.000000000000000000 ) ) ;
#46 = CARTESIAN_POINT ( 'NONE',  ( 0.0000000000000000000, 0.0000000000000000000, 0.0000000000000000000 ) ) ;
#47 = EDGE_LOOP ( 'NONE', ( #107, #61, #202, #35 ) ) ;
#48 = CARTESIAN_POINT ( 'NONE',  ( 4.000000000000000000, 4.898587196589412800E-016, 3.000000000000000000 ) ) ;
#49 = DIRECTION ( 'NONE',  ( 0.0000000000000000000, 0.0000000000000000000, 1.000000000000000000 ) ) ;
#50 = AXIS2_PLACEMENT_3D ( 'NONE', #159, #132, #173 ) ;
#51 = CARTESIAN_POINT ( 'NONE',  ( 1.500000000000000200, 1.836970198721030200E-016, 13.00000000000000200 ) ) ;
#52 = CARTESIAN_POINT ( 'NONE',  ( 4.000000000000000000, 4.898587196589412800E-016, 3.000000000000000000 ) ) ;
#53 = CARTESIAN_POINT ( 'NONE',  ( -4.000000000000000000, 0.0000000000000000000, 0.0000000000000000000 ) ) ;
#54 = PRODUCT_DEFINITION_CONTEXT ( 'detailed design', #168, 'design' ) ;
#55 = SURFACE_SIDE_STYLE ('',( #23 ) ) ;
#56 = ORIENTED_EDGE ( 'NONE', *, *, #15, .F. ) ;
#57 = UNCERTAINTY_MEASURE_WITH_UNIT (LENGTH_MEASURE( 1.000000000000000100E-005 ), #76, 'distance_accuracy_value', 'NONE');
#58 = SURFACE_STYLE_USAGE ( .BOTH. , #182 ) ;
#59 = EDGE_LOOP ( 'NONE', ( #218, #160 ) ) ;
#60 = FACE_OUTER_BOUND ( 'NONE', #59, .T. ) ;
#61 = ORIENTED_EDGE ( 'NONE', *, *, #203, .T. ) ;
#62 = AXIS2_PLACEMENT_3D ( 'NONE', #214, #100, #13 ) ;
#63 = VERTEX_POINT ( 'NONE', #112 ) ;
#64 = EDGE_CURVE ( 'NONE', #138, #167, #177, .T. ) ;
#65 = DIRECTION ( 'NONE',  ( 1.000000000000000000, 0.0000000000000000000, 0.0000000000000000000 ) ) ;
#66 = FILL_AREA_STYLE ('',( #190 ) ) ;
#67 = DIRECTION ( 'NONE',  ( 0.0000000000000000000, 0.0000000000000000000, 1.000000000000000000 ) ) ;
#68 = CYLINDRICAL_SURFACE ( 'NONE', #62, 1.500000000000000200 ) ;
#69 = SHAPE_DEFINITION_REPRESENTATION ( #206, #73 ) ;
#70 = CARTESIAN_POINT ( 'NONE',  ( 0.0000000000000000000, 0.0000000000000000000, 13.00000000000000200 ) ) ;
#71 = SURFACE_STYLE_USAGE ( .BOTH. , #55 ) ;
#72 = AXIS2_PLACEMENT_3D ( 'NONE', #155, #30, #83 ) ;
#73 = ADVANCED_BREP_SHAPE_REPRESENTATION ( 'TÛte de ressort de rappel', ( #79, #152 ), #33 ) ;
#74 = CARTESIAN_POINT ( 'NONE',  ( -1.500000000000000200, 0.0000000000000000000, 13.00000000000000200 ) ) ;
#75 = DIRECTION ( 'NONE',  ( 0.0000000000000000000, 0.0000000000000000000, 1.000000000000000000 ) ) ;
#76 =( LENGTH_UNIT ( ) NAMED_UNIT ( * ) SI_UNIT ( .MILLI., .METRE. ) );
#77 = ADVANCED_FACE ( 'NONE', ( #110 ), #68, .T. ) ;
#78 = EDGE_CURVE ( 'NONE', #138, #212, #187, .T. ) ;
#79 = MANIFOLD_SOLID_BREP ( 'Boss.-Extru.2', #169 ) ;
#80 = EDGE_CURVE ( 'NONE', #167, #138, #122, .T. ) ;
#81 = VERTEX_POINT ( 'NONE', #143 ) ;
#82 = LINE ( 'NONE', #48, #199 ) ;
#83 = DIRECTION ( 'NONE',  ( 1.000000000000000000, 0.0000000000000000000, -0.0000000000000000000 ) ) ;
#84 = CARTESIAN_POINT ( 'NONE',  ( -4.000000000000000000, 0.0000000000000000000, 3.000000000000000000 ) ) ;
#85 = EDGE_CURVE ( 'NONE', #167, #99, #82, .T. ) ;
#86 = CARTESIAN_POINT ( 'NONE',  ( 0.0000000000000000000, 0.0000000000000000000, 0.0000000000000000000 ) ) ;
#87 = ORIENTED_EDGE ( 'NONE', *, *, #15, .T. ) ;
#88 = DIRECTION ( 'NONE',  ( -0.0000000000000000000, -0.0000000000000000000, -1.000000000000000000 ) ) ;
#89 =( NAMED_UNIT ( * ) PLANE_ANGLE_UNIT ( ) SI_UNIT ( $, .RADIAN. ) );
#90 = ADVANCED_FACE ( 'NONE', ( #44 ), #161, .F. ) ;
#91 = PRESENTATION_STYLE_ASSIGNMENT (( #71 ) ) ;
#92 = DIRECTION ( 'NONE',  ( 1.000000000000000000, 0.0000000000000000000, 0.0000000000000000000 ) ) ;
#93 = PRODUCT_DEFINITION ( 'UNKNOWN', '', #220, #54 ) ;
#94 = LINE ( 'NONE', #106, #27 ) ;
#95 = PRESENTATION_LAYER_ASSIGNMENT (  '', '', ( #166 ) ) ;
#96 = ORIENTED_EDGE ( 'NONE', *, *, #64, .T. ) ;
#97 = FACE_OUTER_BOUND ( 'NONE', #41, .T. ) ;
#98 = DIRECTION ( 'NONE',  ( 0.0000000000000000000, 0.0000000000000000000, 1.000000000000000000 ) ) ;
#99 = VERTEX_POINT ( 'NONE', #104 ) ;
#100 = DIRECTION ( 'NONE',  ( -0.0000000000000000000, -0.0000000000000000000, -1.000000000000000000 ) ) ;
#101 = DIRECTION ( 'NONE',  ( 1.000000000000000000, 0.0000000000000000000, 0.0000000000000000000 ) ) ;
#102 = DIRECTION ( 'NONE',  ( 1.000000000000000000, 0.0000000000000000000, 0.0000000000000000000 ) ) ;
#103 = UNCERTAINTY_MEASURE_WITH_UNIT (LENGTH_MEASURE( 1.000000000000000100E-005 ), #116, 'distance_accuracy_value', 'NONE');
#104 = CARTESIAN_POINT ( 'NONE',  ( 4.000000000000000000, 4.898587196589412800E-016, 0.0000000000000000000 ) ) ;
#105 = AXIS2_PLACEMENT_3D ( 'NONE', #86, #117, #146 ) ;
#106 = CARTESIAN_POINT ( 'NONE',  ( 1.500000000000000200, 1.836970198721030200E-016, 13.00000000000000200 ) ) ;
#107 = ORIENTED_EDGE ( 'NONE', *, *, #12, .F. ) ;
#108 = CIRCLE ( 'NONE', #210, 1.500000000000000200 ) ;
#109 = AXIS2_PLACEMENT_3D ( 'NONE', #129, #37, #158 ) ;
#110 = FACE_OUTER_BOUND ( 'NONE', #47, .T. ) ;
#111 = EDGE_LOOP ( 'NONE', ( #193, #125, #183, #141 ) ) ;
#112 = CARTESIAN_POINT ( 'NONE',  ( 1.500000000000000200, 1.836970198721030200E-016, 3.000000000000000000 ) ) ;
#113 = DIRECTION ( 'NONE',  ( 0.0000000000000000000, 0.0000000000000000000, 1.000000000000000000 ) ) ;
#114 = ORIENTED_EDGE ( 'NONE', *, *, #203, .F. ) ;
#115 = FACE_OUTER_BOUND ( 'NONE', #154, .T. ) ;
#116 =( LENGTH_UNIT ( ) NAMED_UNIT ( * ) SI_UNIT ( .MILLI., .METRE. ) );
#117 = DIRECTION ( 'NONE',  ( 0.0000000000000000000, 0.0000000000000000000, 1.000000000000000000 ) ) ;
#118 = ORIENTED_EDGE ( 'NONE', *, *, #151, .T. ) ;
#119 = EDGE_LOOP ( 'NONE', ( #134, #178 ) ) ;
#120 = DIRECTION ( 'NONE',  ( -0.0000000000000000000, -0.0000000000000000000, -1.000000000000000000 ) ) ;
#121 = APPLICATION_CONTEXT ( 'automotive_design' ) ;
#122 = CIRCLE ( 'NONE', #50, 4.000000000000000000 ) ;
#123 = PRODUCT_CONTEXT ( 'NONE', #121, 'mechanical' ) ;
#124 = ORIENTED_EDGE ( 'NONE', *, *, #180, .T. ) ;
#125 = ORIENTED_EDGE ( 'NONE', *, *, #64, .F. ) ;
#126 = PLANE ( 'NONE',  #145 ) ;
#127 = COLOUR_RGB ( '',0.7921568627450980000, 0.8196078431372548800, 0.9333333333333333500 ) ;
#128 = VERTEX_POINT ( 'NONE', #51 ) ;
#129 = CARTESIAN_POINT ( 'NONE',  ( 0.0000000000000000000, 0.0000000000000000000, 13.00000000000000200 ) ) ;
#130 = EDGE_LOOP ( 'NONE', ( #43, #56 ) ) ;
#131 = CARTESIAN_POINT ( 'NONE',  ( 0.0000000000000000000, 0.0000000000000000000, 3.000000000000000000 ) ) ;
#132 = DIRECTION ( 'NONE',  ( 0.0000000000000000000, 0.0000000000000000000, 1.000000000000000000 ) ) ;
#133 = FILL_AREA_STYLE_COLOUR ( '', #36 ) ;
#134 = ORIENTED_EDGE ( 'NONE', *, *, #180, .F. ) ;
#135 = PRESENTATION_LAYER_ASSIGNMENT (  '', '', ( #3 ) ) ;
#136 =( NAMED_UNIT ( * ) PLANE_ANGLE_UNIT ( ) SI_UNIT ( $, .RADIAN. ) );
#137 = ORIENTED_EDGE ( 'NONE', *, *, #80, .F. ) ;
#138 = VERTEX_POINT ( 'NONE', #84 ) ;
#139 = EDGE_CURVE ( 'NONE', #184, #128, #17, .T. ) ;
#140 = ORIENTED_EDGE ( 'NONE', *, *, #85, .T. ) ;
#141 = ORIENTED_EDGE ( 'NONE', *, *, #26, .T. ) ;
#142 = CARTESIAN_POINT ( 'NONE',  ( 0.0000000000000000000, 0.0000000000000000000, 3.000000000000000000 ) ) ;
#143 = CARTESIAN_POINT ( 'NONE',  ( -1.500000000000000200, 0.0000000000000000000, 3.000000000000000000 ) ) ;
#144 = CARTESIAN_POINT ( 'NONE',  ( -1.500000000000000200, 0.0000000000000000000, 13.00000000000000200 ) ) ;
#145 = AXIS2_PLACEMENT_3D ( 'NONE', #45, #67, #195 ) ;
#146 = DIRECTION ( 'NONE',  ( 1.000000000000000000, 0.0000000000000000000, -0.0000000000000000000 ) ) ;
#147 = FILL_AREA_STYLE ('',( #133 ) ) ;
#148 = DIRECTION ( 'NONE',  ( -0.0000000000000000000, -0.0000000000000000000, -1.000000000000000000 ) ) ;
#149 = CYLINDRICAL_SURFACE ( 'NONE', #32, 1.500000000000000200 ) ;
#150 =( GEOMETRIC_REPRESENTATION_CONTEXT ( 3 ) GLOBAL_UNCERTAINTY_ASSIGNED_CONTEXT ( ( #205 ) ) GLOBAL_UNIT_ASSIGNED_CONTEXT ( ( #2, #136, #165 ) ) REPRESENTATION_CONTEXT ( 'NONE', 'WORKASPACE' ) );
#151 = EDGE_CURVE ( 'NONE', #184, #81, #31, .T. ) ;
#152 = AXIS2_PLACEMENT_3D ( 'NONE', #208, #22, #92 ) ;
#153 = CYLINDRICAL_SURFACE ( 'NONE', #9, 4.000000000000000000 ) ;
#154 = EDGE_LOOP ( 'NONE', ( #114, #171, #118, #124 ) ) ;
#155 = CARTESIAN_POINT ( 'NONE',  ( 0.0000000000000000000, 0.0000000000000000000, 13.00000000000000200 ) ) ;
#156 = DIRECTION ( 'NONE',  ( -0.0000000000000000000, -0.0000000000000000000, -1.000000000000000000 ) ) ;
#157 = CARTESIAN_POINT ( 'NONE',  ( 0.0000000000000000000, 0.0000000000000000000, 3.000000000000000000 ) ) ;
#158 = DIRECTION ( 'NONE',  ( 1.000000000000000000, 0.0000000000000000000, 0.0000000000000000000 ) ) ;
#159 = CARTESIAN_POINT ( 'NONE',  ( 0.0000000000000000000, 0.0000000000000000000, 3.000000000000000000 ) ) ;
#160 = ORIENTED_EDGE ( 'NONE', *, *, #12, .T. ) ;
#161 = PLANE ( 'NONE',  #105 ) ;
#162 = AXIS2_PLACEMENT_3D ( 'NONE', #142, #215, #10 ) ;
#163 = APPLICATION_PROTOCOL_DEFINITION ( 'draft international standard', 'automotive_design', 1998, #168 ) ;
#164 = EDGE_LOOP ( 'NONE', ( #137, #140, #87, #7 ) ) ;
#165 =( NAMED_UNIT ( * ) SI_UNIT ( $, .STERADIAN. ) SOLID_ANGLE_UNIT ( ) );
#166 = STYLED_ITEM ( 'NONE', ( #91 ), #79 ) ;
#167 = VERTEX_POINT ( 'NONE', #52 ) ;
#168 = APPLICATION_CONTEXT ( 'automotive_design' ) ;
#169 = CLOSED_SHELL ( 'NONE', ( #77, #185, #39, #16, #90, #186, #5 ) ) ;
#170 = EDGE_CURVE ( 'NONE', #63, #81, #108, .T. ) ;
#171 = ORIENTED_EDGE ( 'NONE', *, *, #139, .F. ) ;
#172 = CARTESIAN_POINT ( 'NONE',  ( 0.0000000000000000000, 0.0000000000000000000, 13.00000000000000200 ) ) ;
#173 = DIRECTION ( 'NONE',  ( 1.000000000000000000, 0.0000000000000000000, 0.0000000000000000000 ) ) ;
#174 =( NAMED_UNIT ( * ) PLANE_ANGLE_UNIT ( ) SI_UNIT ( $, .RADIAN. ) );
#175 = MECHANICAL_DESIGN_GEOMETRIC_PRESENTATION_REPRESENTATION (  '', ( #3 ), #150 ) ;
#176 = DIRECTION ( 'NONE',  ( -1.000000000000000000, 0.0000000000000000000, 0.0000000000000000000 ) ) ;
#177 = CIRCLE ( 'NONE', #21, 4.000000000000000000 ) ;
#178 = ORIENTED_EDGE ( 'NONE', *, *, #170, .F. ) ;
#179 = VECTOR ( 'NONE', #88, 1000.000000000000000 ) ;
#180 = EDGE_CURVE ( 'NONE', #81, #63, #209, .T. ) ;
#181 = ORIENTED_EDGE ( 'NONE', *, *, #80, .T. ) ;
#182 = SURFACE_SIDE_STYLE ('',( #211 ) ) ;
#183 = ORIENTED_EDGE ( 'NONE', *, *, #78, .T. ) ;
#184 = VERTEX_POINT ( 'NONE', #74 ) ;
#185 = ADVANCED_FACE ( 'NONE', ( #188 ), #153, .T. ) ;
#186 = ADVANCED_FACE ( 'NONE', ( #115 ), #149, .T. ) ;
#187 = LINE ( 'NONE', #14, #1 ) ;
#188 = FACE_OUTER_BOUND ( 'NONE', #164, .T. ) ;
#189 =( GEOMETRIC_REPRESENTATION_CONTEXT ( 3 ) GLOBAL_UNCERTAINTY_ASSIGNED_CONTEXT ( ( #57 ) ) GLOBAL_UNIT_ASSIGNED_CONTEXT ( ( #76, #174, #219 ) ) REPRESENTATION_CONTEXT ( 'NONE', 'WORKASPACE' ) );
#190 = FILL_AREA_STYLE_COLOUR ( '', #127 ) ;
#191 = FACE_OUTER_BOUND ( 'NONE', #111, .T. ) ;
#192 = DIRECTION ( 'NONE',  ( 1.000000000000000000, 0.0000000000000000000, 0.0000000000000000000 ) ) ;
#193 = ORIENTED_EDGE ( 'NONE', *, *, #85, .F. ) ;
#194 = AXIS2_PLACEMENT_3D ( 'NONE', #216, #49, #192 ) ;
#195 = DIRECTION ( 'NONE',  ( 1.000000000000000000, 0.0000000000000000000, -0.0000000000000000000 ) ) ;
#196 = PLANE ( 'NONE',  #72 ) ;
#197 = PRESENTATION_STYLE_ASSIGNMENT (( #58 ) ) ;
#198 = DIRECTION ( 'NONE',  ( -0.0000000000000000000, -0.0000000000000000000, -1.000000000000000000 ) ) ;
#199 = VECTOR ( 'NONE', #120, 1000.000000000000000 ) ;
#200 = DIRECTION ( 'NONE',  ( 1.000000000000000000, 0.0000000000000000000, 0.0000000000000000000 ) ) ;
#201 = CIRCLE ( 'NONE', #24, 1.500000000000000200 ) ;
#202 = ORIENTED_EDGE ( 'NONE', *, *, #170, .T. ) ;
#203 = EDGE_CURVE ( 'NONE', #128, #63, #94, .T. ) ;
#204 =( NAMED_UNIT ( * ) SI_UNIT ( $, .STERADIAN. ) SOLID_ANGLE_UNIT ( ) );
#205 = UNCERTAINTY_MEASURE_WITH_UNIT (LENGTH_MEASURE( 1.000000000000000100E-005 ), #2, 'distance_accuracy_value', 'NONE');
#206 = PRODUCT_DEFINITION_SHAPE ( 'NONE', 'NONE',  #93 ) ;
#207 = APPLICATION_PROTOCOL_DEFINITION ( 'draft international standard', 'automotive_design', 1998, #121 ) ;
#208 = CARTESIAN_POINT ( 'NONE',  ( 0.0000000000000000000, 0.0000000000000000000, 0.0000000000000000000 ) ) ;
#209 = CIRCLE ( 'NONE', #8, 1.500000000000000200 ) ;
#210 = AXIS2_PLACEMENT_3D ( 'NONE', #19, #75, #102 ) ;
#211 = SURFACE_STYLE_FILL_AREA ( #147 ) ;
#212 = VERTEX_POINT ( 'NONE', #53 ) ;
#213 = AXIS2_PLACEMENT_3D ( 'NONE', #46, #217, #101 ) ;
#214 = CARTESIAN_POINT ( 'NONE',  ( 0.0000000000000000000, 0.0000000000000000000, 13.00000000000000200 ) ) ;
#215 = DIRECTION ( 'NONE',  ( -0.0000000000000000000, -0.0000000000000000000, -1.000000000000000000 ) ) ;
#216 = CARTESIAN_POINT ( 'NONE',  ( 0.0000000000000000000, 0.0000000000000000000, 0.0000000000000000000 ) ) ;
#217 = DIRECTION ( 'NONE',  ( 0.0000000000000000000, 0.0000000000000000000, 1.000000000000000000 ) ) ;
#218 = ORIENTED_EDGE ( 'NONE', *, *, #139, .T. ) ;
#219 =( NAMED_UNIT ( * ) SI_UNIT ( $, .STERADIAN. ) SOLID_ANGLE_UNIT ( ) );
#220 = PRODUCT_DEFINITION_FORMATION_WITH_SPECIFIED_SOURCE ( 'ANY', '', #42, .NOT_KNOWN. ) ;
ENDSEC;
END-ISO-10303-21;
