ISO-10303-21;
HEADER;
FILE_DESCRIPTION (( 'STEP AP214' ),
    '1' );
FILE_NAME ('CuvetteLongue.STEP',
    '2021-11-22T10:37:31',
    ( '' ),
    ( '' ),
    'SwSTEP 2.0',
    'SolidWorks 2021',
    '' );
FILE_SCHEMA (( 'AUTOMOTIVE_DESIGN' ));
ENDSEC;

DATA;
#1 = CARTESIAN_POINT ( 'NONE',  ( 12.00000000000000000, 2.449293598294706119E-15, -19.99999999999999645 ) ) ;
#2 = EDGE_CURVE ( 'NONE', #132, #195, #86, .T. ) ;
#3 = ORIENTED_EDGE ( 'NONE', *, *, #2, .F. ) ;
#4 = AXIS2_PLACEMENT_3D ( 'NONE', #160, #31, #187 ) ;
#5 = EDGE_LOOP ( 'NONE', ( #38, #83, #253, #125 ) ) ;
#6 =( GEOMETRIC_REPRESENTATION_CONTEXT ( 3 ) GLOBAL_UNCERTAINTY_ASSIGNED_CONTEXT ( ( #34 ) ) GLOBAL_UNIT_ASSIGNED_CONTEXT ( ( #110, #112, #280 ) ) REPRESENTATION_CONTEXT ( 'NONE', 'WORKASPACE' ) );
#7 = DIRECTION ( 'NONE',  ( -0.000000000000000000, 0.000000000000000000, 1.000000000000000000 ) ) ;
#8 = PRODUCT ( 'CuvetteLongue', 'CuvetteLongue', '', ( #240 ) ) ;
#9 = FACE_BOUND ( 'NONE', #101, .T. ) ;
#10 = ORIENTED_EDGE ( 'NONE', *, *, #247, .F. ) ;
#11 = UNCERTAINTY_MEASURE_WITH_UNIT (LENGTH_MEASURE( 1.000000000000000082E-05 ), #155, 'distance_accuracy_value', 'NONE');
#12 = ORIENTED_EDGE ( 'NONE', *, *, #88, .T. ) ;
#13 = PRESENTATION_LAYER_ASSIGNMENT (  '', '', ( #234 ) ) ;
#14 = SURFACE_STYLE_USAGE ( .BOTH. , #56 ) ;
#15 = VERTEX_POINT ( 'NONE', #82 ) ;
#16 = DIRECTION ( 'NONE',  ( 1.000000000000000000, 0.000000000000000000, 0.000000000000000000 ) ) ;
#17 = EDGE_LOOP ( 'NONE', ( #130, #70, #150, #196 ) ) ;
#18 = MECHANICAL_DESIGN_GEOMETRIC_PRESENTATION_REPRESENTATION (  '', ( #234 ), #243 ) ;
#19 = PRODUCT_DEFINITION_FORMATION_WITH_SPECIFIED_SOURCE ( 'ANY', '', #8, .NOT_KNOWN. ) ;
#20 = CARTESIAN_POINT ( 'NONE',  ( 12.00000000000000000, 0.000000000000000000, 0.000000000000000000 ) ) ;
#21 = CARTESIAN_POINT ( 'NONE',  ( 12.00000000000000000, 2.045160154576079420E-15, -16.69999999999999574 ) ) ;
#22 = CARTESIAN_POINT ( 'NONE',  ( 0.000000000000000000, 0.000000000000000000, 0.000000000000000000 ) ) ;
#23 = AXIS2_PLACEMENT_3D ( 'NONE', #27, #254, #230 ) ;
#24 = DIRECTION ( 'NONE',  ( -1.000000000000000000, -0.000000000000000000, -0.000000000000000000 ) ) ;
#25 = UNCERTAINTY_MEASURE_WITH_UNIT (LENGTH_MEASURE( 1.000000000000000082E-05 ), #200, 'distance_accuracy_value', 'NONE');
#26 = FACE_OUTER_BOUND ( 'NONE', #232, .T. ) ;
#27 = CARTESIAN_POINT ( 'NONE',  ( 12.00000000000000000, 0.000000000000000000, 0.000000000000000000 ) ) ;
#28 = CIRCLE ( 'NONE', #55, 5.000000000000000000 ) ;
#29 =( GEOMETRIC_REPRESENTATION_CONTEXT ( 3 ) GLOBAL_UNCERTAINTY_ASSIGNED_CONTEXT ( ( #25 ) ) GLOBAL_UNIT_ASSIGNED_CONTEXT ( ( #200, #237, #85 ) ) REPRESENTATION_CONTEXT ( 'NONE', 'WORKASPACE' ) );
#30 = DIRECTION ( 'NONE',  ( -1.000000000000000000, -0.000000000000000000, -0.000000000000000000 ) ) ;
#31 = DIRECTION ( 'NONE',  ( -1.000000000000000000, -0.000000000000000000, -0.000000000000000000 ) ) ;
#32 = EDGE_LOOP ( 'NONE', ( #263, #40, #59, #36 ) ) ;
#33 = DIRECTION ( 'NONE',  ( -1.000000000000000000, -0.000000000000000000, -0.000000000000000000 ) ) ;
#34 = UNCERTAINTY_MEASURE_WITH_UNIT (LENGTH_MEASURE( 1.000000000000000082E-05 ), #110, 'distance_accuracy_value', 'NONE');
#35 = ORIENTED_EDGE ( 'NONE', *, *, #217, .T. ) ;
#36 = ORIENTED_EDGE ( 'NONE', *, *, #158, .F. ) ;
#37 = PRESENTATION_STYLE_ASSIGNMENT (( #14 ) ) ;
#38 = ORIENTED_EDGE ( 'NONE', *, *, #164, .F. ) ;
#39 = ADVANCED_FACE ( 'NONE', ( #264, #173 ), #259, .F. ) ;
#40 = ORIENTED_EDGE ( 'NONE', *, *, #146, .T. ) ;
#41 = FILL_AREA_STYLE ('',( #136 ) ) ;
#42 = CARTESIAN_POINT ( 'NONE',  ( 0.000000000000000000, 2.045160154576079814E-15, -16.69999999999999929 ) ) ;
#43 = SURFACE_STYLE_USAGE ( .BOTH. , #182 ) ;
#44 = CYLINDRICAL_SURFACE ( 'NONE', #279, 19.99999999999999645 ) ;
#45 = DIRECTION ( 'NONE',  ( 0.000000000000000000, 0.000000000000000000, 1.000000000000000000 ) ) ;
#46 = DIRECTION ( 'NONE',  ( 0.000000000000000000, 0.000000000000000000, 1.000000000000000000 ) ) ;
#47 = ORIENTED_EDGE ( 'NONE', *, *, #129, .T. ) ;
#48 = CARTESIAN_POINT ( 'NONE',  ( 3.851859888774471706E-31, 0.000000000000000000, 19.99999999999999645 ) ) ;
#49 = ORIENTED_EDGE ( 'NONE', *, *, #242, .T. ) ;
#50 = ADVANCED_FACE ( 'NONE', ( #152, #289 ), #113, .F. ) ;
#51 = CARTESIAN_POINT ( 'NONE',  ( 3.851859888774471706E-31, 0.000000000000000000, 0.000000000000000000 ) ) ;
#52 = FACE_OUTER_BOUND ( 'NONE', #111, .T. ) ;
#53 = VERTEX_POINT ( 'NONE', #60 ) ;
#54 = DIRECTION ( 'NONE',  ( 0.000000000000000000, 0.000000000000000000, 1.000000000000000000 ) ) ;
#55 = AXIS2_PLACEMENT_3D ( 'NONE', #186, #143, #75 ) ;
#56 = SURFACE_SIDE_STYLE ('',( #197 ) ) ;
#57 = VERTEX_POINT ( 'NONE', #134 ) ;
#58 = EDGE_CURVE ( 'NONE', #53, #161, #260, .T. ) ;
#59 = ORIENTED_EDGE ( 'NONE', *, *, #58, .F. ) ;
#60 = CARTESIAN_POINT ( 'NONE',  ( 12.00000000000000000, 0.000000000000000000, 16.69999999999999574 ) ) ;
#61 = AXIS2_PLACEMENT_3D ( 'NONE', #265, #246, #114 ) ;
#62 = AXIS2_PLACEMENT_3D ( 'NONE', #102, #191, #165 ) ;
#63 = DIRECTION ( 'NONE',  ( -1.000000000000000000, -0.000000000000000000, -0.000000000000000000 ) ) ;
#64 = DIRECTION ( 'NONE',  ( 0.000000000000000000, 0.000000000000000000, 1.000000000000000000 ) ) ;
#65 = DIRECTION ( 'NONE',  ( -1.000000000000000000, -0.000000000000000000, -0.000000000000000000 ) ) ;
#66 = AXIS2_PLACEMENT_3D ( 'NONE', #241, #281, #258 ) ;
#67 =( NAMED_UNIT ( * ) PLANE_ANGLE_UNIT ( ) SI_UNIT ( $, .RADIAN. ) );
#68 = CARTESIAN_POINT ( 'NONE',  ( 12.00000000000000000, 0.000000000000000000, 19.99999999999999645 ) ) ;
#69 = DIRECTION ( 'NONE',  ( -1.000000000000000000, -0.000000000000000000, -0.000000000000000000 ) ) ;
#70 = ORIENTED_EDGE ( 'NONE', *, *, #2, .T. ) ;
#71 = VECTOR ( 'NONE', #180, 1000.000000000000000 ) ;
#72 = EDGE_CURVE ( 'NONE', #161, #53, #184, .T. ) ;
#73 = CARTESIAN_POINT ( 'NONE',  ( 3.851859888774471706E-31, 0.000000000000000000, 0.000000000000000000 ) ) ;
#74 = PRESENTATION_LAYER_ASSIGNMENT (  '', '', ( #189 ) ) ;
#75 = DIRECTION ( 'NONE',  ( 0.000000000000000000, 0.000000000000000000, 1.000000000000000000 ) ) ;
#76 = VERTEX_POINT ( 'NONE', #91 ) ;
#77 = PRODUCT_DEFINITION_SHAPE ( 'NONE', 'NONE',  #93 ) ;
#78 = LINE ( 'NONE', #98, #179 ) ;
#79 = ADVANCED_FACE ( 'NONE', ( #26 ), #206, .F. ) ;
#80 = VERTEX_POINT ( 'NONE', #68 ) ;
#81 = SHAPE_DEFINITION_REPRESENTATION ( #77, #163 ) ;
#82 = CARTESIAN_POINT ( 'NONE',  ( 43.00000000000000000, 6.123233995736766282E-16, -5.000000000000000000 ) ) ;
#83 = ORIENTED_EDGE ( 'NONE', *, *, #250, .F. ) ;
#84 = AXIS2_PLACEMENT_3D ( 'NONE', #252, #210, #7 ) ;
#85 =( NAMED_UNIT ( * ) SI_UNIT ( $, .STERADIAN. ) SOLID_ANGLE_UNIT ( ) );
#86 = LINE ( 'NONE', #224, #291 ) ;
#87 = CARTESIAN_POINT ( 'NONE',  ( 12.00000000000000000, 0.000000000000000000, 0.000000000000000000 ) ) ;
#88 = EDGE_CURVE ( 'NONE', #57, #76, #142, .T. ) ;
#89 = CARTESIAN_POINT ( 'NONE',  ( 0.000000000000000000, 0.000000000000000000, 5.000000000000000000 ) ) ;
#90 =( NAMED_UNIT ( * ) SI_UNIT ( $, .STERADIAN. ) SOLID_ANGLE_UNIT ( ) );
#91 = CARTESIAN_POINT ( 'NONE',  ( 43.00000000000000000, 0.000000000000000000, 16.69999999999999929 ) ) ;
#92 = FACE_OUTER_BOUND ( 'NONE', #128, .T. ) ;
#93 = PRODUCT_DEFINITION ( 'UNKNOWN', '', #19, #193 ) ;
#94 = CIRCLE ( 'NONE', #227, 19.99999999999999645 ) ;
#95 = LINE ( 'NONE', #181, #105 ) ;
#96 = CYLINDRICAL_SURFACE ( 'NONE', #270, 16.69999999999999929 ) ;
#97 = ORIENTED_EDGE ( 'NONE', *, *, #164, .T. ) ;
#98 = CARTESIAN_POINT ( 'NONE',  ( 0.000000000000000000, 0.000000000000000000, 19.99999999999999645 ) ) ;
#99 = AXIS2_PLACEMENT_3D ( 'NONE', #144, #30, #278 ) ;
#100 = CIRCLE ( 'NONE', #62, 5.000000000000000000 ) ;
#101 = EDGE_LOOP ( 'NONE', ( #238, #245 ) ) ;
#102 = CARTESIAN_POINT ( 'NONE',  ( 43.00000000000000000, 0.000000000000000000, 0.000000000000000000 ) ) ;
#103 = PRODUCT_RELATED_PRODUCT_CATEGORY ( 'part', '', ( #8 ) ) ;
#104 = CYLINDRICAL_SURFACE ( 'NONE', #244, 19.99999999999999645 ) ;
#105 = VECTOR ( 'NONE', #24, 1000.000000000000000 ) ;
#106 = ORIENTED_EDGE ( 'NONE', *, *, #129, .F. ) ;
#107 = MANIFOLD_SOLID_BREP ( 'Révolution1', #166 ) ;
#108 = ORIENTED_EDGE ( 'NONE', *, *, #158, .T. ) ;
#109 = VERTEX_POINT ( 'NONE', #141 ) ;
#110 =( LENGTH_UNIT ( ) NAMED_UNIT ( * ) SI_UNIT ( .MILLI., .METRE. ) );
#111 = EDGE_LOOP ( 'NONE', ( #235, #12, #108, #283 ) ) ;
#112 =( NAMED_UNIT ( * ) PLANE_ANGLE_UNIT ( ) SI_UNIT ( $, .RADIAN. ) );
#113 = PLANE ( 'NONE',  #66 ) ;
#114 = DIRECTION ( 'NONE',  ( 0.000000000000000000, 0.000000000000000000, 1.000000000000000000 ) ) ;
#115 = DIRECTION ( 'NONE',  ( -1.000000000000000000, -0.000000000000000000, -0.000000000000000000 ) ) ;
#116 = COLOUR_RGB ( '',0.8980392156862745390, 0.9176470588235293713, 0.9294117647058823817 ) ;
#117 = DIRECTION ( 'NONE',  ( -1.000000000000000000, -0.000000000000000000, -0.000000000000000000 ) ) ;
#118 = DIRECTION ( 'NONE',  ( 0.000000000000000000, 0.000000000000000000, 1.000000000000000000 ) ) ;
#119 = AXIS2_PLACEMENT_3D ( 'NONE', #159, #208, #185 ) ;
#120 = DIRECTION ( 'NONE',  ( 0.000000000000000000, 0.000000000000000000, 1.000000000000000000 ) ) ;
#121 = CARTESIAN_POINT ( 'NONE',  ( 0.000000000000000000, 0.000000000000000000, 0.000000000000000000 ) ) ;
#122 = APPLICATION_CONTEXT ( 'automotive_design' ) ;
#123 = CARTESIAN_POINT ( 'NONE',  ( 3.851859888774471706E-31, 2.449293598294706119E-15, -19.99999999999999645 ) ) ;
#124 = EDGE_LOOP ( 'NONE', ( #222, #49 ) ) ;
#125 = ORIENTED_EDGE ( 'NONE', *, *, #207, .T. ) ;
#126 = APPLICATION_PROTOCOL_DEFINITION ( 'draft international standard', 'automotive_design', 1998, #140 ) ;
#127 = COLOUR_RGB ( '',0.8980392156862745390, 0.9176470588235293713, 0.9294117647058823817 ) ;
#128 = EDGE_LOOP ( 'NONE', ( #3, #145, #35, #218 ) ) ;
#129 = EDGE_CURVE ( 'NONE', #177, #153, #154, .T. ) ;
#130 = ORIENTED_EDGE ( 'NONE', *, *, #202, .T. ) ;
#131 = FILL_AREA_STYLE ('',( #284 ) ) ;
#132 = VERTEX_POINT ( 'NONE', #1 ) ;
#133 = ADVANCED_FACE ( 'NONE', ( #92 ), #44, .T. ) ;
#134 = CARTESIAN_POINT ( 'NONE',  ( 43.00000000000000000, 2.045160154576079814E-15, -16.69999999999999929 ) ) ;
#135 = CARTESIAN_POINT ( 'NONE',  ( 1.836970198721029194E-15, 0.000000000000000000, 0.000000000000000000 ) ) ;
#136 = FILL_AREA_STYLE_COLOUR ( '', #127 ) ;
#137 = DIRECTION ( 'NONE',  ( -1.000000000000000000, -0.000000000000000000, -0.000000000000000000 ) ) ;
#138 = VECTOR ( 'NONE', #65, 1000.000000000000000 ) ;
#139 = CARTESIAN_POINT ( 'NONE',  ( 0.000000000000000000, 0.000000000000000000, 0.000000000000000000 ) ) ;
#140 = APPLICATION_CONTEXT ( 'automotive_design' ) ;
#141 = CARTESIAN_POINT ( 'NONE',  ( 43.00000000000000000, 0.000000000000000000, 5.000000000000000000 ) ) ;
#142 = CIRCLE ( 'NONE', #119, 16.69999999999999929 ) ;
#143 = DIRECTION ( 'NONE',  ( -1.000000000000000000, -0.000000000000000000, -0.000000000000000000 ) ) ;
#144 = CARTESIAN_POINT ( 'NONE',  ( 43.00000000000000000, 0.000000000000000000, 0.000000000000000000 ) ) ;
#145 = ORIENTED_EDGE ( 'NONE', *, *, #190, .T. ) ;
#146 = EDGE_CURVE ( 'NONE', #57, #161, #294, .T. ) ;
#147 = ORIENTED_EDGE ( 'NONE', *, *, #202, .F. ) ;
#148 = CIRCLE ( 'NONE', #236, 19.99999999999999645 ) ;
#149 = DIRECTION ( 'NONE',  ( -1.000000000000000000, -0.000000000000000000, -0.000000000000000000 ) ) ;
#150 = ORIENTED_EDGE ( 'NONE', *, *, #255, .F. ) ;
#151 = ADVANCED_FACE ( 'NONE', ( #226 ), #229, .F. ) ;
#152 = FACE_OUTER_BOUND ( 'NONE', #220, .T. ) ;
#153 = VERTEX_POINT ( 'NONE', #204 ) ;
#154 = CIRCLE ( 'NONE', #223, 5.000000000000000000 ) ;
#155 =( LENGTH_UNIT ( ) NAMED_UNIT ( * ) SI_UNIT ( .MILLI., .METRE. ) );
#156 = CARTESIAN_POINT ( 'NONE',  ( 1.836970198721029194E-15, 6.123233995736766282E-16, -5.000000000000000000 ) ) ;
#157 = DIRECTION ( 'NONE',  ( 0.000000000000000000, 0.000000000000000000, 1.000000000000000000 ) ) ;
#158 = EDGE_CURVE ( 'NONE', #76, #53, #209, .T. ) ;
#159 = CARTESIAN_POINT ( 'NONE',  ( 43.00000000000000000, 0.000000000000000000, 0.000000000000000000 ) ) ;
#160 = CARTESIAN_POINT ( 'NONE',  ( 43.00000000000000000, 0.000000000000000000, 0.000000000000000000 ) ) ;
#161 = VERTEX_POINT ( 'NONE', #21 ) ;
#162 = AXIS2_PLACEMENT_3D ( 'NONE', #176, #16, #198 ) ;
#163 = ADVANCED_BREP_SHAPE_REPRESENTATION ( 'CuvetteLongue', ( #107, #287 ), #29 ) ;
#164 = EDGE_CURVE ( 'NONE', #15, #177, #95, .T. ) ;
#165 = DIRECTION ( 'NONE',  ( 0.000000000000000000, 0.000000000000000000, 1.000000000000000000 ) ) ;
#166 = CLOSED_SHELL ( 'NONE', ( #293, #169, #79, #39, #151, #50, #262, #272, #133 ) ) ;
#167 = CARTESIAN_POINT ( 'NONE',  ( 0.000000000000000000, 0.000000000000000000, 0.000000000000000000 ) ) ;
#168 = MECHANICAL_DESIGN_GEOMETRIC_PRESENTATION_REPRESENTATION (  '', ( #189 ), #6 ) ;
#169 = ADVANCED_FACE ( 'NONE', ( #266 ), #271, .T. ) ;
#170 = DIRECTION ( 'NONE',  ( 1.000000000000000000, 0.000000000000000000, 0.000000000000000000 ) ) ;
#171 = ORIENTED_EDGE ( 'NONE', *, *, #190, .F. ) ;
#172 = APPLICATION_PROTOCOL_DEFINITION ( 'draft international standard', 'automotive_design', 1998, #122 ) ;
#173 = FACE_OUTER_BOUND ( 'NONE', #124, .T. ) ;
#174 = CIRCLE ( 'NONE', #213, 19.99999999999999645 ) ;
#175 = ORIENTED_EDGE ( 'NONE', *, *, #250, .T. ) ;
#176 = CARTESIAN_POINT ( 'NONE',  ( 9.184850993605147944E-16, 19.99999999999999645, 0.000000000000000000 ) ) ;
#177 = VERTEX_POINT ( 'NONE', #156 ) ;
#178 = CARTESIAN_POINT ( 'NONE',  ( 12.00000000000000000, 0.000000000000000000, 0.000000000000000000 ) ) ;
#179 = VECTOR ( 'NONE', #273, 1000.000000000000000 ) ;
#180 = DIRECTION ( 'NONE',  ( -1.000000000000000000, -0.000000000000000000, -0.000000000000000000 ) ) ;
#181 = CARTESIAN_POINT ( 'NONE',  ( 0.000000000000000000, 6.123233995736766282E-16, -5.000000000000000000 ) ) ;
#182 = SURFACE_SIDE_STYLE ('',( #228 ) ) ;
#183 = EDGE_CURVE ( 'NONE', #109, #153, #290, .T. ) ;
#184 = CIRCLE ( 'NONE', #276, 16.69999999999999574 ) ;
#185 = DIRECTION ( 'NONE',  ( 0.000000000000000000, 0.000000000000000000, 1.000000000000000000 ) ) ;
#186 = CARTESIAN_POINT ( 'NONE',  ( 1.836970198721029194E-15, 0.000000000000000000, 0.000000000000000000 ) ) ;
#187 = DIRECTION ( 'NONE',  ( 0.000000000000000000, 0.000000000000000000, 1.000000000000000000 ) ) ;
#188 = CIRCLE ( 'NONE', #23, 19.99999999999999645 ) ;
#189 = STYLED_ITEM ( 'NONE', ( #37 ), #163 ) ;
#190 = EDGE_CURVE ( 'NONE', #132, #80, #148, .T. ) ;
#191 = DIRECTION ( 'NONE',  ( -1.000000000000000000, -0.000000000000000000, -0.000000000000000000 ) ) ;
#192 = CARTESIAN_POINT ( 'NONE',  ( 0.000000000000000000, 0.000000000000000000, 0.000000000000000000 ) ) ;
#193 = PRODUCT_DEFINITION_CONTEXT ( 'detailed design', #140, 'design' ) ;
#194 = CIRCLE ( 'NONE', #99, 16.69999999999999929 ) ;
#195 = VERTEX_POINT ( 'NONE', #123 ) ;
#196 = ORIENTED_EDGE ( 'NONE', *, *, #217, .F. ) ;
#197 = SURFACE_STYLE_FILL_AREA ( #131 ) ;
#198 = DIRECTION ( 'NONE',  ( 0.000000000000000000, 0.000000000000000000, -1.000000000000000000 ) ) ;
#199 = ORIENTED_EDGE ( 'NONE', *, *, #207, .F. ) ;
#200 =( LENGTH_UNIT ( ) NAMED_UNIT ( * ) SI_UNIT ( .MILLI., .METRE. ) );
#201 = DIRECTION ( 'NONE',  ( -1.000000000000000000, -0.000000000000000000, -0.000000000000000000 ) ) ;
#202 = EDGE_CURVE ( 'NONE', #80, #132, #188, .T. ) ;
#203 = CARTESIAN_POINT ( 'NONE',  ( 0.000000000000000000, 0.000000000000000000, 0.000000000000000000 ) ) ;
#204 = CARTESIAN_POINT ( 'NONE',  ( 1.836970198721029194E-15, 0.000000000000000000, 5.000000000000000000 ) ) ;
#205 = AXIS2_PLACEMENT_3D ( 'NONE', #22, #115, #118 ) ;
#206 = CYLINDRICAL_SURFACE ( 'NONE', #61, 5.000000000000000000 ) ;
#207 = EDGE_CURVE ( 'NONE', #153, #177, #28, .T. ) ;
#208 = DIRECTION ( 'NONE',  ( -1.000000000000000000, -0.000000000000000000, -0.000000000000000000 ) ) ;
#209 = LINE ( 'NONE', #292, #71 ) ;
#210 = DIRECTION ( 'NONE',  ( -1.000000000000000000, 0.000000000000000000, -0.000000000000000000 ) ) ;
#211 = PLANE ( 'NONE',  #84 ) ;
#212 = EDGE_LOOP ( 'NONE', ( #199, #106 ) ) ;
#213 = AXIS2_PLACEMENT_3D ( 'NONE', #73, #33, #120 ) ;
#214 = DIRECTION ( 'NONE',  ( -1.000000000000000000, -0.000000000000000000, -0.000000000000000000 ) ) ;
#215 = EDGE_LOOP ( 'NONE', ( #175, #277 ) ) ;
#216 = FACE_OUTER_BOUND ( 'NONE', #261, .T. ) ;
#217 = EDGE_CURVE ( 'NONE', #80, #239, #78, .T. ) ;
#218 = ORIENTED_EDGE ( 'NONE', *, *, #242, .F. ) ;
#219 = AXIS2_PLACEMENT_3D ( 'NONE', #203, #117, #64 ) ;
#220 = EDGE_LOOP ( 'NONE', ( #10, #288 ) ) ;
#221 = DIRECTION ( 'NONE',  ( -1.000000000000000000, -0.000000000000000000, -0.000000000000000000 ) ) ;
#222 = ORIENTED_EDGE ( 'NONE', *, *, #255, .T. ) ;
#223 = AXIS2_PLACEMENT_3D ( 'NONE', #135, #225, #157 ) ;
#224 = CARTESIAN_POINT ( 'NONE',  ( 0.000000000000000000, 2.449293598294706119E-15, -19.99999999999999645 ) ) ;
#225 = DIRECTION ( 'NONE',  ( -1.000000000000000000, -0.000000000000000000, -0.000000000000000000 ) ) ;
#226 = FACE_OUTER_BOUND ( 'NONE', #5, .T. ) ;
#227 = AXIS2_PLACEMENT_3D ( 'NONE', #51, #231, #233 ) ;
#228 = SURFACE_STYLE_FILL_AREA ( #41 ) ;
#229 = CYLINDRICAL_SURFACE ( 'NONE', #205, 5.000000000000000000 ) ;
#230 = DIRECTION ( 'NONE',  ( 0.000000000000000000, 0.000000000000000000, 1.000000000000000000 ) ) ;
#231 = DIRECTION ( 'NONE',  ( -1.000000000000000000, -0.000000000000000000, -0.000000000000000000 ) ) ;
#232 = EDGE_LOOP ( 'NONE', ( #251, #97, #47, #274 ) ) ;
#233 = DIRECTION ( 'NONE',  ( 0.000000000000000000, 0.000000000000000000, 1.000000000000000000 ) ) ;
#234 = STYLED_ITEM ( 'NONE', ( #268 ), #107 ) ;
#235 = ORIENTED_EDGE ( 'NONE', *, *, #146, .F. ) ;
#236 = AXIS2_PLACEMENT_3D ( 'NONE', #178, #69, #46 ) ;
#237 =( NAMED_UNIT ( * ) PLANE_ANGLE_UNIT ( ) SI_UNIT ( $, .RADIAN. ) );
#238 = ORIENTED_EDGE ( 'NONE', *, *, #58, .T. ) ;
#239 = VERTEX_POINT ( 'NONE', #48 ) ;
#240 = PRODUCT_CONTEXT ( 'NONE', #122, 'mechanical' ) ;
#241 = CARTESIAN_POINT ( 'NONE',  ( 43.00000000000000000, 5.000000000000000000, 0.000000000000000000 ) ) ;
#242 = EDGE_CURVE ( 'NONE', #195, #239, #94, .T. ) ;
#243 =( GEOMETRIC_REPRESENTATION_CONTEXT ( 3 ) GLOBAL_UNCERTAINTY_ASSIGNED_CONTEXT ( ( #11 ) ) GLOBAL_UNIT_ASSIGNED_CONTEXT ( ( #155, #67, #90 ) ) REPRESENTATION_CONTEXT ( 'NONE', 'WORKASPACE' ) );
#244 = AXIS2_PLACEMENT_3D ( 'NONE', #192, #249, #45 ) ;
#245 = ORIENTED_EDGE ( 'NONE', *, *, #72, .T. ) ;
#246 = DIRECTION ( 'NONE',  ( -1.000000000000000000, -0.000000000000000000, -0.000000000000000000 ) ) ;
#247 = EDGE_CURVE ( 'NONE', #76, #57, #194, .T. ) ;
#248 = CIRCLE ( 'NONE', #4, 5.000000000000000000 ) ;
#249 = DIRECTION ( 'NONE',  ( -1.000000000000000000, -0.000000000000000000, -0.000000000000000000 ) ) ;
#250 = EDGE_CURVE ( 'NONE', #109, #15, #248, .T. ) ;
#251 = ORIENTED_EDGE ( 'NONE', *, *, #282, .F. ) ;
#252 = CARTESIAN_POINT ( 'NONE',  ( 12.00000000000000000, 16.69999999999999574, 0.000000000000000000 ) ) ;
#253 = ORIENTED_EDGE ( 'NONE', *, *, #183, .T. ) ;
#254 = DIRECTION ( 'NONE',  ( -1.000000000000000000, -0.000000000000000000, -0.000000000000000000 ) ) ;
#255 = EDGE_CURVE ( 'NONE', #239, #195, #174, .T. ) ;
#256 = FACE_OUTER_BOUND ( 'NONE', #17, .T. ) ;
#257 = DIRECTION ( 'NONE',  ( 0.000000000000000000, 0.000000000000000000, 1.000000000000000000 ) ) ;
#258 = DIRECTION ( 'NONE',  ( -0.000000000000000000, 0.000000000000000000, 1.000000000000000000 ) ) ;
#259 = PLANE ( 'NONE',  #162 ) ;
#260 = CIRCLE ( 'NONE', #286, 16.69999999999999574 ) ;
#261 = EDGE_LOOP ( 'NONE', ( #147, #171 ) ) ;
#262 = ADVANCED_FACE ( 'NONE', ( #52 ), #96, .T. ) ;
#263 = ORIENTED_EDGE ( 'NONE', *, *, #247, .T. ) ;
#264 = FACE_BOUND ( 'NONE', #212, .T. ) ;
#265 = CARTESIAN_POINT ( 'NONE',  ( 0.000000000000000000, 0.000000000000000000, 0.000000000000000000 ) ) ;
#266 = FACE_OUTER_BOUND ( 'NONE', #32, .T. ) ;
#267 = DIRECTION ( 'NONE',  ( 0.000000000000000000, 0.000000000000000000, 1.000000000000000000 ) ) ;
#268 = PRESENTATION_STYLE_ASSIGNMENT (( #43 ) ) ;
#269 = VECTOR ( 'NONE', #63, 1000.000000000000000 ) ;
#270 = AXIS2_PLACEMENT_3D ( 'NONE', #121, #214, #275 ) ;
#271 = CYLINDRICAL_SURFACE ( 'NONE', #219, 16.69999999999999929 ) ;
#272 = ADVANCED_FACE ( 'NONE', ( #216, #9 ), #211, .F. ) ;
#273 = DIRECTION ( 'NONE',  ( -1.000000000000000000, -0.000000000000000000, -0.000000000000000000 ) ) ;
#274 = ORIENTED_EDGE ( 'NONE', *, *, #183, .F. ) ;
#275 = DIRECTION ( 'NONE',  ( 0.000000000000000000, 0.000000000000000000, 1.000000000000000000 ) ) ;
#276 = AXIS2_PLACEMENT_3D ( 'NONE', #87, #149, #285 ) ;
#277 = ORIENTED_EDGE ( 'NONE', *, *, #282, .T. ) ;
#278 = DIRECTION ( 'NONE',  ( 0.000000000000000000, 0.000000000000000000, 1.000000000000000000 ) ) ;
#279 = AXIS2_PLACEMENT_3D ( 'NONE', #139, #137, #267 ) ;
#280 =( NAMED_UNIT ( * ) SI_UNIT ( $, .STERADIAN. ) SOLID_ANGLE_UNIT ( ) );
#281 = DIRECTION ( 'NONE',  ( -1.000000000000000000, 0.000000000000000000, -0.000000000000000000 ) ) ;
#282 = EDGE_CURVE ( 'NONE', #15, #109, #100, .T. ) ;
#283 = ORIENTED_EDGE ( 'NONE', *, *, #72, .F. ) ;
#284 = FILL_AREA_STYLE_COLOUR ( '', #116 ) ;
#285 = DIRECTION ( 'NONE',  ( 0.000000000000000000, 0.000000000000000000, 1.000000000000000000 ) ) ;
#286 = AXIS2_PLACEMENT_3D ( 'NONE', #20, #201, #54 ) ;
#287 = AXIS2_PLACEMENT_3D ( 'NONE', #167, #257, #170 ) ;
#288 = ORIENTED_EDGE ( 'NONE', *, *, #88, .F. ) ;
#289 = FACE_BOUND ( 'NONE', #215, .T. ) ;
#290 = LINE ( 'NONE', #89, #138 ) ;
#291 = VECTOR ( 'NONE', #221, 1000.000000000000000 ) ;
#292 = CARTESIAN_POINT ( 'NONE',  ( 0.000000000000000000, 0.000000000000000000, 16.69999999999999929 ) ) ;
#293 = ADVANCED_FACE ( 'NONE', ( #256 ), #104, .T. ) ;
#294 = LINE ( 'NONE', #42, #269 ) ;
ENDSEC;
END-ISO-10303-21;