ISO-10303-21;
HEADER;
/* Generated by software containing ST-Developer
 * from STEP Tools, Inc. (www.steptools.com) 
 */

FILE_DESCRIPTION(
/* description */ (''),
/* implementation_level */ '2;1');

FILE_NAME(
/* name */ 
'C:/Users/Hadrien/Downloads/telescope250/fer \X\E0 cheval pour monture
 t\X\E9lescope 200 v6.step',
/* time_stamp */ '2022-02-15T17:01:24+01:00',
/* author */ (''),
/* organization */ (''),
/* preprocessor_version */ 'ST-DEVELOPER v18.1',
/* originating_system */ 'Autodesk Translation Framework v10.13.0.1454',

/* authorisation */ '');

FILE_SCHEMA (('AUTOMOTIVE_DESIGN { 1 0 10303 214 3 1 1 }'));
ENDSEC;

DATA;
#10=MECHANICAL_DESIGN_GEOMETRIC_PRESENTATION_REPRESENTATION('',(#13),#251);
#11=SHAPE_REPRESENTATION_RELATIONSHIP('SRR','None',#258,#12);
#12=ADVANCED_BREP_SHAPE_REPRESENTATION('',(#14),#250);
#13=STYLED_ITEM('',(#267),#14);
#14=MANIFOLD_SOLID_BREP('Corps1',#147);
#15=CYLINDRICAL_SURFACE('',#167,272.5);
#16=CIRCLE('',#166,272.5);
#17=CIRCLE('',#168,272.5);
#18=FACE_OUTER_BOUND('',#26,.T.);
#19=FACE_OUTER_BOUND('',#27,.T.);
#20=FACE_OUTER_BOUND('',#28,.T.);
#21=FACE_OUTER_BOUND('',#29,.T.);
#22=FACE_OUTER_BOUND('',#30,.T.);
#23=FACE_OUTER_BOUND('',#31,.T.);
#24=FACE_OUTER_BOUND('',#32,.T.);
#25=FACE_OUTER_BOUND('',#33,.T.);
#26=EDGE_LOOP('',(#96,#97,#98,#99));
#27=EDGE_LOOP('',(#100,#101,#102,#103));
#28=EDGE_LOOP('',(#104,#105,#106,#107));
#29=EDGE_LOOP('',(#108,#109,#110,#111));
#30=EDGE_LOOP('',(#112,#113,#114,#115,#116,#117));
#31=EDGE_LOOP('',(#118,#119,#120,#121));
#32=EDGE_LOOP('',(#122,#123,#124,#125,#126,#127));
#33=EDGE_LOOP('',(#128,#129,#130,#131));
#34=LINE('',#213,#50);
#35=LINE('',#215,#51);
#36=LINE('',#217,#52);
#37=LINE('',#218,#53);
#38=LINE('',#221,#54);
#39=LINE('',#223,#55);
#40=LINE('',#224,#56);
#41=LINE('',#228,#57);
#42=LINE('',#230,#58);
#43=LINE('',#232,#59);
#44=LINE('',#233,#60);
#45=LINE('',#236,#61);
#46=LINE('',#238,#62);
#47=LINE('',#239,#63);
#48=LINE('',#241,#64);
#49=LINE('',#246,#65);
#50=VECTOR('',#175,10.);
#51=VECTOR('',#176,10.);
#52=VECTOR('',#177,10.);
#53=VECTOR('',#178,10.);
#54=VECTOR('',#181,10.);
#55=VECTOR('',#182,10.);
#56=VECTOR('',#183,10.);
#57=VECTOR('',#186,10.);
#58=VECTOR('',#187,10.);
#59=VECTOR('',#188,10.);
#60=VECTOR('',#189,10.);
#61=VECTOR('',#192,10.);
#62=VECTOR('',#193,10.);
#63=VECTOR('',#194,10.);
#64=VECTOR('',#197,10.);
#65=VECTOR('',#206,10.);
#66=VERTEX_POINT('',#211);
#67=VERTEX_POINT('',#212);
#68=VERTEX_POINT('',#214);
#69=VERTEX_POINT('',#216);
#70=VERTEX_POINT('',#220);
#71=VERTEX_POINT('',#222);
#72=VERTEX_POINT('',#226);
#73=VERTEX_POINT('',#227);
#74=VERTEX_POINT('',#229);
#75=VERTEX_POINT('',#231);
#76=VERTEX_POINT('',#235);
#77=VERTEX_POINT('',#237);
#78=EDGE_CURVE('',#66,#67,#34,.F.);
#79=EDGE_CURVE('',#68,#66,#35,.F.);
#80=EDGE_CURVE('',#69,#68,#36,.T.);
#81=EDGE_CURVE('',#67,#69,#37,.F.);
#82=EDGE_CURVE('',#70,#69,#38,.F.);
#83=EDGE_CURVE('',#71,#70,#39,.F.);
#84=EDGE_CURVE('',#67,#71,#40,.T.);
#85=EDGE_CURVE('',#72,#73,#41,.F.);
#86=EDGE_CURVE('',#74,#72,#42,.F.);
#87=EDGE_CURVE('',#74,#75,#43,.F.);
#88=EDGE_CURVE('',#73,#75,#44,.T.);
#89=EDGE_CURVE('',#75,#76,#45,.F.);
#90=EDGE_CURVE('',#77,#74,#46,.T.);
#91=EDGE_CURVE('',#77,#76,#47,.T.);
#92=EDGE_CURVE('',#68,#77,#48,.T.);
#93=EDGE_CURVE('',#72,#70,#16,.F.);
#94=EDGE_CURVE('',#71,#73,#17,.T.);
#95=EDGE_CURVE('',#76,#66,#49,.F.);
#96=ORIENTED_EDGE('',*,*,#78,.F.);
#97=ORIENTED_EDGE('',*,*,#79,.F.);
#98=ORIENTED_EDGE('',*,*,#80,.F.);
#99=ORIENTED_EDGE('',*,*,#81,.F.);
#100=ORIENTED_EDGE('',*,*,#82,.F.);
#101=ORIENTED_EDGE('',*,*,#83,.F.);
#102=ORIENTED_EDGE('',*,*,#84,.F.);
#103=ORIENTED_EDGE('',*,*,#81,.T.);
#104=ORIENTED_EDGE('',*,*,#85,.F.);
#105=ORIENTED_EDGE('',*,*,#86,.F.);
#106=ORIENTED_EDGE('',*,*,#87,.T.);
#107=ORIENTED_EDGE('',*,*,#88,.F.);
#108=ORIENTED_EDGE('',*,*,#89,.F.);
#109=ORIENTED_EDGE('',*,*,#87,.F.);
#110=ORIENTED_EDGE('',*,*,#90,.F.);
#111=ORIENTED_EDGE('',*,*,#91,.T.);
#112=ORIENTED_EDGE('',*,*,#80,.T.);
#113=ORIENTED_EDGE('',*,*,#92,.T.);
#114=ORIENTED_EDGE('',*,*,#90,.T.);
#115=ORIENTED_EDGE('',*,*,#86,.T.);
#116=ORIENTED_EDGE('',*,*,#93,.T.);
#117=ORIENTED_EDGE('',*,*,#82,.T.);
#118=ORIENTED_EDGE('',*,*,#93,.F.);
#119=ORIENTED_EDGE('',*,*,#85,.T.);
#120=ORIENTED_EDGE('',*,*,#94,.F.);
#121=ORIENTED_EDGE('',*,*,#83,.T.);
#122=ORIENTED_EDGE('',*,*,#78,.T.);
#123=ORIENTED_EDGE('',*,*,#84,.T.);
#124=ORIENTED_EDGE('',*,*,#94,.T.);
#125=ORIENTED_EDGE('',*,*,#88,.T.);
#126=ORIENTED_EDGE('',*,*,#89,.T.);
#127=ORIENTED_EDGE('',*,*,#95,.T.);
#128=ORIENTED_EDGE('',*,*,#95,.F.);
#129=ORIENTED_EDGE('',*,*,#91,.F.);
#130=ORIENTED_EDGE('',*,*,#92,.F.);
#131=ORIENTED_EDGE('',*,*,#79,.T.);
#132=PLANE('',#161);
#133=PLANE('',#162);
#134=PLANE('',#163);
#135=PLANE('',#164);
#136=PLANE('',#165);
#137=PLANE('',#169);
#138=PLANE('',#170);
#139=ADVANCED_FACE('',(#18),#132,.F.);
#140=ADVANCED_FACE('',(#19),#133,.T.);
#141=ADVANCED_FACE('',(#20),#134,.T.);
#142=ADVANCED_FACE('',(#21),#135,.F.);
#143=ADVANCED_FACE('',(#22),#136,.T.);
#144=ADVANCED_FACE('',(#23),#15,.T.);
#145=ADVANCED_FACE('',(#24),#137,.F.);
#146=ADVANCED_FACE('',(#25),#138,.F.);
#147=CLOSED_SHELL('',(#139,#140,#141,#142,#143,#144,#145,#146));
#148=DERIVED_UNIT_ELEMENT(#150,1.);
#149=DERIVED_UNIT_ELEMENT(#253,-3.);
#150=(
MASS_UNIT()
NAMED_UNIT(*)
SI_UNIT(.KILO.,.GRAM.)
);
#151=DERIVED_UNIT((#148,#149));
#152=MEASURE_REPRESENTATION_ITEM('density measure',
POSITIVE_RATIO_MEASURE(7850.),#151);
#153=PROPERTY_DEFINITION_REPRESENTATION(#158,#155);
#154=PROPERTY_DEFINITION_REPRESENTATION(#159,#156);
#155=REPRESENTATION('material name',(#157),#250);
#156=REPRESENTATION('density',(#152),#250);
#157=DESCRIPTIVE_REPRESENTATION_ITEM('Acier','Acier');
#158=PROPERTY_DEFINITION('material property','material name',#260);
#159=PROPERTY_DEFINITION('material property','density of part',#260);
#160=AXIS2_PLACEMENT_3D('placement',#209,#171,#172);
#161=AXIS2_PLACEMENT_3D('',#210,#173,#174);
#162=AXIS2_PLACEMENT_3D('',#219,#179,#180);
#163=AXIS2_PLACEMENT_3D('',#225,#184,#185);
#164=AXIS2_PLACEMENT_3D('',#234,#190,#191);
#165=AXIS2_PLACEMENT_3D('',#240,#195,#196);
#166=AXIS2_PLACEMENT_3D('',#242,#198,#199);
#167=AXIS2_PLACEMENT_3D('',#243,#200,#201);
#168=AXIS2_PLACEMENT_3D('',#244,#202,#203);
#169=AXIS2_PLACEMENT_3D('',#245,#204,#205);
#170=AXIS2_PLACEMENT_3D('',#247,#207,#208);
#171=DIRECTION('axis',(0.,0.,1.));
#172=DIRECTION('refdir',(1.,0.,0.));
#173=DIRECTION('center_axis',(0.,1.,0.));
#174=DIRECTION('ref_axis',(1.,0.,0.));
#175=DIRECTION('',(1.,0.,0.));
#176=DIRECTION('',(0.,0.,1.));
#177=DIRECTION('',(1.,0.,0.));
#178=DIRECTION('',(0.,0.,-1.));
#179=DIRECTION('center_axis',(-1.,0.,0.));
#180=DIRECTION('ref_axis',(0.,-1.,0.));
#181=DIRECTION('',(0.,1.,0.));
#182=DIRECTION('',(0.,0.,-1.));
#183=DIRECTION('',(0.,1.,0.));
#184=DIRECTION('center_axis',(-1.,0.,0.));
#185=DIRECTION('ref_axis',(0.,-1.,0.));
#186=DIRECTION('',(0.,0.,1.));
#187=DIRECTION('',(0.,1.,0.));
#188=DIRECTION('',(0.,0.,1.));
#189=DIRECTION('',(0.,1.,0.));
#190=DIRECTION('center_axis',(0.,-1.,0.));
#191=DIRECTION('ref_axis',(-1.,0.,0.));
#192=DIRECTION('',(-1.,0.,0.));
#193=DIRECTION('',(-1.,0.,0.));
#194=DIRECTION('',(0.,0.,-1.));
#195=DIRECTION('center_axis',(0.,0.,1.));
#196=DIRECTION('ref_axis',(1.,0.,0.));
#197=DIRECTION('',(0.,-1.,0.));
#198=DIRECTION('center_axis',(0.,0.,-1.));
#199=DIRECTION('ref_axis',(1.,0.,0.));
#200=DIRECTION('center_axis',(0.,0.,-1.));
#201=DIRECTION('ref_axis',(1.,0.,0.));
#202=DIRECTION('center_axis',(0.,0.,-1.));
#203=DIRECTION('ref_axis',(1.,0.,0.));
#204=DIRECTION('center_axis',(0.,0.,1.));
#205=DIRECTION('ref_axis',(1.,0.,0.));
#206=DIRECTION('',(0.,-1.,0.));
#207=DIRECTION('center_axis',(1.,0.,0.));
#208=DIRECTION('ref_axis',(0.,-1.,0.));
#209=CARTESIAN_POINT('',(0.,0.,0.));
#210=CARTESIAN_POINT('Origin',(-360.,170.,10.));
#211=CARTESIAN_POINT('',(30.,170.,-10.));
#212=CARTESIAN_POINT('',(-315.,170.,-10.));
#213=CARTESIAN_POINT('',(-238.75,170.,-10.));
#214=CARTESIAN_POINT('',(30.,170.,0.));
#215=CARTESIAN_POINT('',(30.,170.,10.));
#216=CARTESIAN_POINT('',(-315.,170.,0.));
#217=CARTESIAN_POINT('',(-238.75,170.,0.));
#218=CARTESIAN_POINT('',(-315.,170.,5.));
#219=CARTESIAN_POINT('Origin',(-315.,185.,0.));
#220=CARTESIAN_POINT('',(-315.,197.749833555186,0.));
#221=CARTESIAN_POINT('',(-315.,97.5,0.));
#222=CARTESIAN_POINT('',(-315.,197.749833555186,-10.));
#223=CARTESIAN_POINT('',(-315.,197.749833555186,0.));
#224=CARTESIAN_POINT('',(-315.,97.5,-10.));
#225=CARTESIAN_POINT('Origin',(-315.,185.,0.));
#226=CARTESIAN_POINT('',(-315.,-177.749833555186,0.));
#227=CARTESIAN_POINT('',(-315.,-177.749833555186,-10.));
#228=CARTESIAN_POINT('',(-315.,-177.749833555186,0.));
#229=CARTESIAN_POINT('',(-315.,-150.,0.));
#230=CARTESIAN_POINT('',(-315.,97.5,0.));
#231=CARTESIAN_POINT('',(-315.,-150.,-10.));
#232=CARTESIAN_POINT('',(-315.,-150.,5.));
#233=CARTESIAN_POINT('',(-315.,97.5,-10.));
#234=CARTESIAN_POINT('Origin',(0.,-150.,10.));
#235=CARTESIAN_POINT('',(30.,-150.,-10.));
#236=CARTESIAN_POINT('',(-58.75,-150.,-10.));
#237=CARTESIAN_POINT('',(30.,-150.,0.));
#238=CARTESIAN_POINT('',(-58.75,-150.,0.));
#239=CARTESIAN_POINT('',(30.,-150.,10.));
#240=CARTESIAN_POINT('Origin',(-117.5,10.,0.));
#241=CARTESIAN_POINT('',(30.,80.,0.));
#242=CARTESIAN_POINT('Origin',(-117.5,10.,0.));
#243=CARTESIAN_POINT('Origin',(-117.5,10.,0.));
#244=CARTESIAN_POINT('Origin',(-117.5,10.,-10.));
#245=CARTESIAN_POINT('Origin',(-117.5,10.,-10.));
#246=CARTESIAN_POINT('',(30.,80.,-10.));
#247=CARTESIAN_POINT('Origin',(30.,150.,10.));
#248=UNCERTAINTY_MEASURE_WITH_UNIT(LENGTH_MEASURE(0.01),#252,
'DISTANCE_ACCURACY_VALUE',
'Maximum model space distance between geometric entities at asserted c
onnectivities');
#249=UNCERTAINTY_MEASURE_WITH_UNIT(LENGTH_MEASURE(0.01),#252,
'DISTANCE_ACCURACY_VALUE',
'Maximum model space distance between geometric entities at asserted c
onnectivities');
#250=(
GEOMETRIC_REPRESENTATION_CONTEXT(3)
GLOBAL_UNCERTAINTY_ASSIGNED_CONTEXT((#248))
GLOBAL_UNIT_ASSIGNED_CONTEXT((#252,#254,#255))
REPRESENTATION_CONTEXT('','3D')
);
#251=(
GEOMETRIC_REPRESENTATION_CONTEXT(3)
GLOBAL_UNCERTAINTY_ASSIGNED_CONTEXT((#249))
GLOBAL_UNIT_ASSIGNED_CONTEXT((#252,#254,#255))
REPRESENTATION_CONTEXT('','3D')
);
#252=(
LENGTH_UNIT()
NAMED_UNIT(*)
SI_UNIT(.MILLI.,.METRE.)
);
#253=(
LENGTH_UNIT()
NAMED_UNIT(*)
SI_UNIT($,.METRE.)
);
#254=(
NAMED_UNIT(*)
PLANE_ANGLE_UNIT()
SI_UNIT($,.RADIAN.)
);
#255=(
NAMED_UNIT(*)
SI_UNIT($,.STERADIAN.)
SOLID_ANGLE_UNIT()
);
#256=SHAPE_DEFINITION_REPRESENTATION(#257,#258);
#257=PRODUCT_DEFINITION_SHAPE('',$,#260);
#258=SHAPE_REPRESENTATION('',(#160),#250);
#259=PRODUCT_DEFINITION_CONTEXT('part definition',#264,'design');
#260=PRODUCT_DEFINITION('fer \X\E0 cheval pour monture t\X\E9lescope 2
00','fer \X\E0 cheval pour monture t\X\E9lescope 200 v6',#261,#259);
#261=PRODUCT_DEFINITION_FORMATION('',$,#266);
#262=PRODUCT_RELATED_PRODUCT_CATEGORY(
'fer \X\E0 cheval pour monture t\X\E9lescope 200 v6',
'fer \X\E0 cheval pour monture t\X\E9lescope 200 v6',(#266));
#263=APPLICATION_PROTOCOL_DEFINITION('international standard',
'automotive_design',2009,#264);
#264=APPLICATION_CONTEXT(
'Core Data for Automotive Mechanical Design Process');
#265=PRODUCT_CONTEXT('part definition',#264,'mechanical');
#266=PRODUCT('fer \X\E0 cheval pour monture t\X\E9lescope 200',
'fer \X\E0 cheval pour monture t\X\E9lescope 200 v6',$,(#265));
#267=PRESENTATION_STYLE_ASSIGNMENT((#268));
#268=SURFACE_STYLE_USAGE(.BOTH.,#269);
#269=SURFACE_SIDE_STYLE('',(#270));
#270=SURFACE_STYLE_FILL_AREA(#271);
#271=FILL_AREA_STYLE('Acier - Satin\X\E9',(#272));
#272=FILL_AREA_STYLE_COLOUR('Acier - Satin\X\E9',#273);
#273=COLOUR_RGB('Acier - Satin\X\E9',0.627450980392157,0.627450980392157,
0.627450980392157);
ENDSEC;
END-ISO-10303-21;
