ISO-10303-21;
HEADER;
FILE_DESCRIPTION((''),'1');
FILE_NAME('C:/Users/gael/Google Drive/Entretoise plateau.stp', '2022-02-03T21:57:23',(''), (''), 'KCM Version 1.1.2450.0', 'KeyCreator', '');
FILE_SCHEMA(('AUTOMOTIVE_DESIGN'));
ENDSEC;
DATA;
#1=PRODUCT_DEFINITION_CONTEXT('',#4,'design');
#2=PRODUCT_CONTEXT('',#4,'mechanical');
#3=APPLICATION_PROTOCOL_DEFINITION('International Standard','automotive_design',2001,#4);
#4=APPLICATION_CONTEXT('automotive design');
#10=DIMENSIONAL_EXPONENTS(1.0,0.0,0.0,0.0,0.0,0.0,0.0);
#11=DIMENSIONAL_EXPONENTS(0.0,0.0,0.0,0.0,0.0,0.0,0.0);
#12= (NAMED_UNIT(#10)LENGTH_UNIT()SI_UNIT(.MILLI.,.METRE.));
#13= (NAMED_UNIT(#11)PLANE_ANGLE_UNIT()SI_UNIT($,.RADIAN.));
#14= (NAMED_UNIT(#11)SOLID_ANGLE_UNIT()SI_UNIT($,.STERADIAN.));
#15=LENGTH_MEASURE_WITH_UNIT(LENGTH_MEASURE(1.0),#12);
#16= (CONVERSION_BASED_UNIT('MILLIMETRE',#15)LENGTH_UNIT()NAMED_UNIT(#10));
#17=UNCERTAINTY_MEASURE_WITH_UNIT(LENGTH_MEASURE(1.0E-006),#16,'','');
#18= (GEOMETRIC_REPRESENTATION_CONTEXT(3)GLOBAL_UNCERTAINTY_ASSIGNED_CONTEXT((#17))GLOBAL_UNIT_ASSIGNED_CONTEXT((#16,#13,#14))REPRESENTATION_CONTEXT('NONE','WORKSPACE'));
#20=CARTESIAN_POINT('',(0.000000000000000,0.000000000000000,0.000000000000000));
#21=DIRECTION('',(0.000000000000000,0.000000000000000,1.00000000000000));
#22=DIRECTION('',(1.00000000000000,0.000000000000000,0.000000000000000));
#23=AXIS2_PLACEMENT_3D('',#20,#21,#22);
#24=CARTESIAN_POINT('',(353.931823730469,-10.0000000000000,1667.04992675781));
#25=VERTEX_POINT('',#24);
#26=CARTESIAN_POINT('',(374.931823730469,-10.0000000000000,1667.04992675781));
#27=DIRECTION('',(0.000000000000000,1.00000000000000,0.000000000000000));
#28=DIRECTION('',(1.00000000000000,0.000000000000000,0.000000000000000));
#29=AXIS2_PLACEMENT_3D('',#26,#27,#28);
#30=CIRCLE('',#29,21.0000000000000);
#31=EDGE_CURVE('',#25,#25,#30,.T.);
#32=ORIENTED_EDGE('',*,*,#31,.F.);
#33=CARTESIAN_POINT('',(353.931823730469,0.000000000000000,1667.04992675781));
#34=VERTEX_POINT('',#33);
#35=CARTESIAN_POINT('',(353.931823730469,0.000000000000000,1667.04992675781));
#36=DIRECTION('',(0.000000000000000,-1.00000000000000,0.000000000000000));
#37=VECTOR('',#36,21.0000000000000);
#38=LINE('',#35,#37);
#39=EDGE_CURVE('',#34,#25,#38,.T.);
#40=ORIENTED_EDGE('',*,*,#39,.F.);
#41=CARTESIAN_POINT('',(374.931823730469,0.000000000000000,1667.04992675781));
#42=DIRECTION('',(-0.000000000000000,-1.00000000000000,-0.000000000000000));
#43=DIRECTION('',(-1.00000000000000,0.000000000000000,0.000000000000000));
#44=AXIS2_PLACEMENT_3D('',#41,#42,#43);
#45=CIRCLE('',#44,21.0000000000000);
#46=EDGE_CURVE('',#34,#34,#45,.T.);
#47=ORIENTED_EDGE('',*,*,#46,.F.);
#48=ORIENTED_EDGE('',*,*,#39,.T.);
#49=EDGE_LOOP('',(#32,#40,#47,#48));
#50=FACE_OUTER_BOUND('',#49,.T.);
#51=CARTESIAN_POINT('',(374.931823730469,0.000000000000000,1667.04992675781));
#52=DIRECTION('',(0.000000000000000,-1.00000000000000,0.000000000000000));
#53=DIRECTION('',(-1.00000000000000,0.000000000000000,0.000000000000000));
#54=AXIS2_PLACEMENT_3D('',#51,#52,#53);
#55=CYLINDRICAL_SURFACE('',#54,21.0000000000000);
#56=ADVANCED_FACE('',(#50),#55,.F.);
#57=CARTESIAN_POINT('',(344.931823730469,-10.0000000000000,1667.04992675781));
#58=VERTEX_POINT('',#57);
#59=CARTESIAN_POINT('',(374.931823730469,-10.0000000000000,1667.04992675781));
#60=DIRECTION('',(0.000000000000000,1.00000000000000,0.000000000000000));
#61=DIRECTION('',(1.00000000000000,0.000000000000000,0.000000000000000));
#62=AXIS2_PLACEMENT_3D('',#59,#60,#61);
#63=CIRCLE('',#62,30.0000000000000);
#64=EDGE_CURVE('',#58,#58,#63,.T.);
#65=ORIENTED_EDGE('',*,*,#64,.F.);
#66=EDGE_LOOP('',(#65));
#67=FACE_OUTER_BOUND('',#66,.T.);
#68=ORIENTED_EDGE('',*,*,#31,.T.);
#69=EDGE_LOOP('',(#68));
#70=FACE_BOUND('',#69,.T.);
#71=CARTESIAN_POINT('',(396.108236637848,-10.0000000000000,1674.77535161719));
#72=VERTEX_POINT('',#71);
#73=CARTESIAN_POINT('',(398.708236637848,-10.0000000000000,1674.77535161719));
#74=DIRECTION('',(0.000000000000000,1.00000000000000,0.000000000000000));
#75=DIRECTION('',(1.00000000000000,0.000000000000000,0.000000000000000));
#76=AXIS2_PLACEMENT_3D('',#73,#74,#75);
#77=CIRCLE('',#76,2.60000000000000);
#78=EDGE_CURVE('',#72,#72,#77,.T.);
#79=ORIENTED_EDGE('',*,*,#78,.T.);
#80=EDGE_LOOP('',(#79));
#81=FACE_BOUND('',#80,.T.);
#82=CARTESIAN_POINT('',(387.026455037780,-10.0000000000000,1646.82450189844));
#83=VERTEX_POINT('',#82);
#84=CARTESIAN_POINT('',(389.626455037780,-10.0000000000000,1646.82450189844));
#85=DIRECTION('',(0.000000000000000,1.00000000000000,0.000000000000000));
#86=DIRECTION('',(1.00000000000000,0.000000000000000,0.000000000000000));
#87=AXIS2_PLACEMENT_3D('',#84,#85,#86);
#88=CIRCLE('',#87,2.60000000000000);
#89=EDGE_CURVE('',#83,#83,#88,.T.);
#90=ORIENTED_EDGE('',*,*,#89,.T.);
#91=EDGE_LOOP('',(#90));
#92=FACE_BOUND('',#91,.T.);
#93=CARTESIAN_POINT('',(357.637192423157,-10.0000000000000,1646.82450189844));
#94=VERTEX_POINT('',#93);
#95=CARTESIAN_POINT('',(360.237192423157,-10.0000000000000,1646.82450189844));
#96=DIRECTION('',(0.000000000000000,1.00000000000000,0.000000000000000));
#97=DIRECTION('',(1.00000000000000,0.000000000000000,0.000000000000000));
#98=AXIS2_PLACEMENT_3D('',#95,#96,#97);
#99=CIRCLE('',#98,2.60000000000000);
#100=EDGE_CURVE('',#94,#94,#99,.T.);
#101=ORIENTED_EDGE('',*,*,#100,.T.);
#102=EDGE_LOOP('',(#101));
#103=FACE_BOUND('',#102,.T.);
#104=CARTESIAN_POINT('',(348.555410823090,-10.0000000000000,1674.77535161719));
#105=VERTEX_POINT('',#104);
#106=CARTESIAN_POINT('',(351.155410823090,-10.0000000000000,1674.77535161719));
#107=DIRECTION('',(0.000000000000000,1.00000000000000,0.000000000000000));
#108=DIRECTION('',(1.00000000000000,0.000000000000000,0.000000000000000));
#109=AXIS2_PLACEMENT_3D('',#106,#107,#108);
#110=CIRCLE('',#109,2.60000000000000);
#111=EDGE_CURVE('',#105,#105,#110,.T.);
#112=ORIENTED_EDGE('',*,*,#111,.T.);
#113=EDGE_LOOP('',(#112));
#114=FACE_BOUND('',#113,.T.);
#115=CARTESIAN_POINT('',(372.331823730469,-10.0000000000000,1692.04992675781));
#116=VERTEX_POINT('',#115);
#117=CARTESIAN_POINT('',(374.931823730469,-10.0000000000000,1692.04992675781));
#118=DIRECTION('',(0.000000000000000,1.00000000000000,0.000000000000000));
#119=DIRECTION('',(1.00000000000000,0.000000000000000,0.000000000000000));
#120=AXIS2_PLACEMENT_3D('',#117,#118,#119);
#121=CIRCLE('',#120,2.60000000000000);
#122=EDGE_CURVE('',#116,#116,#121,.T.);
#123=ORIENTED_EDGE('',*,*,#122,.T.);
#124=EDGE_LOOP('',(#123));
#125=FACE_BOUND('',#124,.T.);
#126=CARTESIAN_POINT('',(374.931823730469,-10.0000000000000,1667.04992675781));
#127=DIRECTION('',(0.000000000000000,1.00000000000000,0.000000000000000));
#128=DIRECTION('',(-1.00000000000000,0.000000000000000,0.000000000000000));
#129=AXIS2_PLACEMENT_3D('',#126,#127,#128);
#130=PLANE('',#129);
#131=ADVANCED_FACE('',(#67,#70,#81,#92,#103,#114,#125),#130,.F.);
#132=ORIENTED_EDGE('',*,*,#64,.T.);
#133=CARTESIAN_POINT('',(344.931823730469,0.000000000000000,1667.04992675781));
#134=VERTEX_POINT('',#133);
#135=CARTESIAN_POINT('',(344.931823730469,-7.50000000000000,1667.04992675781));
#136=DIRECTION('',(0.000000000000000,-1.00000000000000,0.000000000000000));
#137=VECTOR('',#136,30.0000000000000);
#138=LINE('',#135,#137);
#139=EDGE_CURVE('',#134,#58,#138,.T.);
#140=ORIENTED_EDGE('',*,*,#139,.F.);
#141=CARTESIAN_POINT('',(374.931823730469,0.000000000000000,1667.04992675781));
#142=DIRECTION('',(0.000000000000000,1.00000000000000,0.000000000000000));
#143=DIRECTION('',(-1.00000000000000,0.000000000000000,0.000000000000000));
#144=AXIS2_PLACEMENT_3D('',#141,#142,#143);
#145=CIRCLE('',#144,30.0000000000000);
#146=EDGE_CURVE('',#134,#134,#145,.T.);
#147=ORIENTED_EDGE('',*,*,#146,.F.);
#148=ORIENTED_EDGE('',*,*,#139,.T.);
#149=EDGE_LOOP('',(#132,#140,#147,#148));
#150=FACE_OUTER_BOUND('',#149,.T.);
#151=CARTESIAN_POINT('',(374.931823730469,-7.50000000000000,1667.04992675781));
#152=DIRECTION('',(0.000000000000000,-1.00000000000000,0.000000000000000));
#153=DIRECTION('',(-1.00000000000000,0.000000000000000,0.000000000000000));
#154=AXIS2_PLACEMENT_3D('',#151,#152,#153);
#155=CYLINDRICAL_SURFACE('',#154,30.0000000000000);
#156=ADVANCED_FACE('',(#150),#155,.T.);
#157=CARTESIAN_POINT('',(396.108236637848,0.000000000000000,1674.77535161719));
#158=VERTEX_POINT('',#157);
#159=CARTESIAN_POINT('',(398.708236637848,0.000000000000000,1674.77535161719));
#160=DIRECTION('',(-0.000000000000000,-1.00000000000000,-0.000000000000000));
#161=DIRECTION('',(1.00000000000000,0.000000000000000,0.000000000000000));
#162=AXIS2_PLACEMENT_3D('',#159,#160,#161);
#163=CIRCLE('',#162,2.60000000000000);
#164=EDGE_CURVE('',#158,#158,#163,.T.);
#165=ORIENTED_EDGE('',*,*,#164,.F.);
#166=CARTESIAN_POINT('',(396.108236637848,-510.000000000000,1674.77535161719));
#167=DIRECTION('',(0.000000000000000,1.00000000000000,0.000000000000000));
#168=VECTOR('',#167,2.60000000000000);
#169=LINE('',#166,#168);
#170=EDGE_CURVE('',#72,#158,#169,.T.);
#171=ORIENTED_EDGE('',*,*,#170,.F.);
#172=ORIENTED_EDGE('',*,*,#78,.F.);
#173=ORIENTED_EDGE('',*,*,#170,.T.);
#174=EDGE_LOOP('',(#165,#171,#172,#173));
#175=FACE_OUTER_BOUND('',#174,.T.);
#176=CARTESIAN_POINT('',(398.708236637848,-510.000000000000,1674.77535161719));
#177=DIRECTION('',(0.000000000000000,1.00000000000000,0.000000000000000));
#178=DIRECTION('',(-1.00000000000000,0.000000000000000,0.000000000000000));
#179=AXIS2_PLACEMENT_3D('',#176,#177,#178);
#180=CYLINDRICAL_SURFACE('',#179,2.60000000000000);
#181=ADVANCED_FACE('',(#175),#180,.F.);
#182=CARTESIAN_POINT('',(387.026455037780,0.000000000000000,1646.82450189844));
#183=VERTEX_POINT('',#182);
#184=CARTESIAN_POINT('',(389.626455037780,0.000000000000000,1646.82450189844));
#185=DIRECTION('',(-0.000000000000000,-1.00000000000000,-0.000000000000000));
#186=DIRECTION('',(1.00000000000000,0.000000000000000,0.000000000000000));
#187=AXIS2_PLACEMENT_3D('',#184,#185,#186);
#188=CIRCLE('',#187,2.60000000000000);
#189=EDGE_CURVE('',#183,#183,#188,.T.);
#190=ORIENTED_EDGE('',*,*,#189,.F.);
#191=CARTESIAN_POINT('',(387.026455037780,-510.000000000000,1646.82450189844));
#192=DIRECTION('',(0.000000000000000,1.00000000000000,0.000000000000000));
#193=VECTOR('',#192,2.60000000000000);
#194=LINE('',#191,#193);
#195=EDGE_CURVE('',#83,#183,#194,.T.);
#196=ORIENTED_EDGE('',*,*,#195,.F.);
#197=ORIENTED_EDGE('',*,*,#89,.F.);
#198=ORIENTED_EDGE('',*,*,#195,.T.);
#199=EDGE_LOOP('',(#190,#196,#197,#198));
#200=FACE_OUTER_BOUND('',#199,.T.);
#201=CARTESIAN_POINT('',(389.626455037780,-510.000000000000,1646.82450189844));
#202=DIRECTION('',(0.000000000000000,1.00000000000000,0.000000000000000));
#203=DIRECTION('',(-1.00000000000000,0.000000000000000,0.000000000000000));
#204=AXIS2_PLACEMENT_3D('',#201,#202,#203);
#205=CYLINDRICAL_SURFACE('',#204,2.60000000000000);
#206=ADVANCED_FACE('',(#200),#205,.F.);
#207=CARTESIAN_POINT('',(357.637192423157,0.000000000000000,1646.82450189844));
#208=VERTEX_POINT('',#207);
#209=CARTESIAN_POINT('',(360.237192423157,0.000000000000000,1646.82450189844));
#210=DIRECTION('',(-0.000000000000000,-1.00000000000000,-0.000000000000000));
#211=DIRECTION('',(1.00000000000000,0.000000000000000,0.000000000000000));
#212=AXIS2_PLACEMENT_3D('',#209,#210,#211);
#213=CIRCLE('',#212,2.60000000000000);
#214=EDGE_CURVE('',#208,#208,#213,.T.);
#215=ORIENTED_EDGE('',*,*,#214,.F.);
#216=CARTESIAN_POINT('',(357.637192423157,-510.000000000000,1646.82450189844));
#217=DIRECTION('',(0.000000000000000,1.00000000000000,0.000000000000000));
#218=VECTOR('',#217,2.60000000000000);
#219=LINE('',#216,#218);
#220=EDGE_CURVE('',#94,#208,#219,.T.);
#221=ORIENTED_EDGE('',*,*,#220,.F.);
#222=ORIENTED_EDGE('',*,*,#100,.F.);
#223=ORIENTED_EDGE('',*,*,#220,.T.);
#224=EDGE_LOOP('',(#215,#221,#222,#223));
#225=FACE_OUTER_BOUND('',#224,.T.);
#226=CARTESIAN_POINT('',(360.237192423157,-510.000000000000,1646.82450189844));
#227=DIRECTION('',(0.000000000000000,1.00000000000000,0.000000000000000));
#228=DIRECTION('',(-1.00000000000000,0.000000000000000,0.000000000000000));
#229=AXIS2_PLACEMENT_3D('',#226,#227,#228);
#230=CYLINDRICAL_SURFACE('',#229,2.60000000000000);
#231=ADVANCED_FACE('',(#225),#230,.F.);
#232=CARTESIAN_POINT('',(348.555410823090,0.000000000000000,1674.77535161719));
#233=VERTEX_POINT('',#232);
#234=CARTESIAN_POINT('',(351.155410823090,0.000000000000000,1674.77535161719));
#235=DIRECTION('',(-0.000000000000000,-1.00000000000000,-0.000000000000000));
#236=DIRECTION('',(1.00000000000000,0.000000000000000,0.000000000000000));
#237=AXIS2_PLACEMENT_3D('',#234,#235,#236);
#238=CIRCLE('',#237,2.60000000000000);
#239=EDGE_CURVE('',#233,#233,#238,.T.);
#240=ORIENTED_EDGE('',*,*,#239,.F.);
#241=CARTESIAN_POINT('',(348.555410823090,-510.000000000000,1674.77535161719));
#242=DIRECTION('',(0.000000000000000,1.00000000000000,0.000000000000000));
#243=VECTOR('',#242,2.60000000000000);
#244=LINE('',#241,#243);
#245=EDGE_CURVE('',#105,#233,#244,.T.);
#246=ORIENTED_EDGE('',*,*,#245,.F.);
#247=ORIENTED_EDGE('',*,*,#111,.F.);
#248=ORIENTED_EDGE('',*,*,#245,.T.);
#249=EDGE_LOOP('',(#240,#246,#247,#248));
#250=FACE_OUTER_BOUND('',#249,.T.);
#251=CARTESIAN_POINT('',(351.155410823090,-510.000000000000,1674.77535161719));
#252=DIRECTION('',(0.000000000000000,1.00000000000000,0.000000000000000));
#253=DIRECTION('',(-1.00000000000000,0.000000000000000,0.000000000000000));
#254=AXIS2_PLACEMENT_3D('',#251,#252,#253);
#255=CYLINDRICAL_SURFACE('',#254,2.60000000000000);
#256=ADVANCED_FACE('',(#250),#255,.F.);
#257=CARTESIAN_POINT('',(372.331823730469,0.000000000000000,1692.04992675781));
#258=VERTEX_POINT('',#257);
#259=CARTESIAN_POINT('',(374.931823730469,0.000000000000000,1692.04992675781));
#260=DIRECTION('',(-0.000000000000000,-1.00000000000000,-0.000000000000000));
#261=DIRECTION('',(1.00000000000000,0.000000000000000,0.000000000000000));
#262=AXIS2_PLACEMENT_3D('',#259,#260,#261);
#263=CIRCLE('',#262,2.60000000000000);
#264=EDGE_CURVE('',#258,#258,#263,.T.);
#265=ORIENTED_EDGE('',*,*,#264,.F.);
#266=CARTESIAN_POINT('',(372.331823730469,-510.000000000000,1692.04992675781));
#267=DIRECTION('',(0.000000000000000,1.00000000000000,0.000000000000000));
#268=VECTOR('',#267,2.60000000000000);
#269=LINE('',#266,#268);
#270=EDGE_CURVE('',#116,#258,#269,.T.);
#271=ORIENTED_EDGE('',*,*,#270,.F.);
#272=ORIENTED_EDGE('',*,*,#122,.F.);
#273=ORIENTED_EDGE('',*,*,#270,.T.);
#274=EDGE_LOOP('',(#265,#271,#272,#273));
#275=FACE_OUTER_BOUND('',#274,.T.);
#276=CARTESIAN_POINT('',(374.931823730469,-510.000000000000,1692.04992675781));
#277=DIRECTION('',(0.000000000000000,1.00000000000000,0.000000000000000));
#278=DIRECTION('',(-1.00000000000000,0.000000000000000,0.000000000000000));
#279=AXIS2_PLACEMENT_3D('',#276,#277,#278);
#280=CYLINDRICAL_SURFACE('',#279,2.60000000000000);
#281=ADVANCED_FACE('',(#275),#280,.F.);
#282=ORIENTED_EDGE('',*,*,#146,.T.);
#283=EDGE_LOOP('',(#282));
#284=FACE_OUTER_BOUND('',#283,.T.);
#285=ORIENTED_EDGE('',*,*,#164,.T.);
#286=EDGE_LOOP('',(#285));
#287=FACE_BOUND('',#286,.T.);
#288=ORIENTED_EDGE('',*,*,#189,.T.);
#289=EDGE_LOOP('',(#288));
#290=FACE_BOUND('',#289,.T.);
#291=ORIENTED_EDGE('',*,*,#214,.T.);
#292=EDGE_LOOP('',(#291));
#293=FACE_BOUND('',#292,.T.);
#294=ORIENTED_EDGE('',*,*,#239,.T.);
#295=EDGE_LOOP('',(#294));
#296=FACE_BOUND('',#295,.T.);
#297=ORIENTED_EDGE('',*,*,#264,.T.);
#298=EDGE_LOOP('',(#297));
#299=FACE_BOUND('',#298,.T.);
#300=ORIENTED_EDGE('',*,*,#46,.T.);
#301=EDGE_LOOP('',(#300));
#302=FACE_BOUND('',#301,.T.);
#303=CARTESIAN_POINT('',(374.931823730469,0.000000000000000,1667.04992675781));
#304=DIRECTION('',(0.000000000000000,1.00000000000000,0.000000000000000));
#305=DIRECTION('',(-1.00000000000000,0.000000000000000,0.000000000000000));
#306=AXIS2_PLACEMENT_3D('',#303,#304,#305);
#307=PLANE('',#306);
#308=ADVANCED_FACE('',(#284,#287,#290,#293,#296,#299,#302),#307,.T.);
#309=CLOSED_SHELL('',(#56,#131,#156,#181,#206,#231,#256,#281,#308));
#310=MANIFOLD_SOLID_BREP('',#309);
#311=COLOUR_RGB('',1.00000000000000,0.000000000000000,1.00000000000000);
#312=FILL_AREA_STYLE_COLOUR('',#311);
#313=FILL_AREA_STYLE('',(#312));
#314=SURFACE_STYLE_FILL_AREA(#313);
#315=SURFACE_SIDE_STYLE('',(#314));
#316=SURFACE_STYLE_USAGE(.BOTH.,#315);
#317=PRESENTATION_STYLE_ASSIGNMENT((#316));
#318=STYLED_ITEM('',(#317),#310);
#319=ADVANCED_BREP_SHAPE_REPRESENTATION('',(#310,#23),#18);
#320=PRODUCT('', '', ' ',(#2));
#321=PRODUCT_DEFINITION_FORMATION_WITH_SPECIFIED_SOURCE (' ', ' ', #320, .NOT_KNOWN.) ;
#322=PRODUCT_CATEGORY('part','') ;
#323=PRODUCT_RELATED_PRODUCT_CATEGORY('detail', ' ', (#320)) ;
#324=PRODUCT_CATEGORY_RELATIONSHIP(' ', ' ', #322, #323);
#325=PRODUCT_DEFINITION('', '', #321, #1);
#326=PRODUCT_DEFINITION_SHAPE('NONE', 'NONE', #325);
#327=SHAPE_DEFINITION_REPRESENTATION(#326, #319);
#328=PRESENTATION_LAYER_ASSIGNMENT('2','ENTRETOISE [2]',(#310));
#329=MECHANICAL_DESIGN_GEOMETRIC_PRESENTATION_REPRESENTATION('',(#318), #18);
ENDSEC;
END-ISO-10303-21;
