ISO-10303-21;
HEADER;
FILE_DESCRIPTION( ( 'Unknown' ), '1' );
FILE_NAME( 'E:/Documents Gilles/Moto/H2-2020/photos-GA/Moteur/Embrayage/Frette-H2-13238-001.stp', 'Unknown', ( 'Unknown' ), ( 'Unknown' ), 'XStep 1.0', 'Unknown', ' ' );
FILE_SCHEMA( ( 'automotive_design' ) );
ENDSEC;
DATA;
#1 = PRODUCT_DEFINITION_CONTEXT( '', #9, 'design' );
#2 = APPLICATION_PROTOCOL_DEFINITION( 'INTERNATIONAL STANDARD', 'automotive_design', 1994, #9 );
#3 = PRODUCT_CATEGORY_RELATIONSHIP( 'NONE', 'NONE', #10, #11 );
#4 = SHAPE_DEFINITION_REPRESENTATION( #12, #13 );
#5 =  ( GEOMETRIC_REPRESENTATION_CONTEXT( 3 )GLOBAL_UNCERTAINTY_ASSIGNED_CONTEXT( ( #16 ) )GLOBAL_UNIT_ASSIGNED_CONTEXT( ( #18, #19, #20 ) )REPRESENTATION_CONTEXT( 'NONE', 'WORKSPACE' ) );
#9 = APPLICATION_CONTEXT( ' ' );
#10 = PRODUCT_CATEGORY( 'part', 'NONE' );
#11 = PRODUCT_RELATED_PRODUCT_CATEGORY( 'detail', ' ', ( #22 ) );
#12 = PRODUCT_DEFINITION_SHAPE( 'NONE', 'NONE', #23 );
#13 = ADVANCED_BREP_SHAPE_REPRESENTATION( '1', ( #24, #25 ), #5 );
#16 = UNCERTAINTY_MEASURE_WITH_UNIT( LENGTH_MEASURE( 3.93700787401575E-005 ), #18, '', '' );
#18 =  ( CONVERSION_BASED_UNIT( 'INCH', #28 )LENGTH_UNIT(  )NAMED_UNIT( #31 ) );
#19 =  ( NAMED_UNIT( #33 )PLANE_ANGLE_UNIT(  )SI_UNIT( $, .RADIAN. ) );
#20 =  ( NAMED_UNIT( #33 )SOLID_ANGLE_UNIT(  )SI_UNIT( $, .STERADIAN. ) );
#22 = PRODUCT( '1', '1', 'PART-1-DESC', ( #39 ) );
#23 = PRODUCT_DEFINITION( 'NONE', 'NONE', #40, #1 );
#24 = MANIFOLD_SOLID_BREP( '1', #41 );
#25 = AXIS2_PLACEMENT_3D( '', #42, #43, #44 );
#28 = LENGTH_MEASURE_WITH_UNIT( LENGTH_MEASURE( 25.4000000000000 ), #45 );
#31 = DIMENSIONAL_EXPONENTS( 1.00000000000000, 0.000000000000000, 0.000000000000000, 0.000000000000000, 0.000000000000000, 0.000000000000000, 0.000000000000000 );
#33 = DIMENSIONAL_EXPONENTS( 0.000000000000000, 0.000000000000000, 0.000000000000000, 0.000000000000000, 0.000000000000000, 0.000000000000000, 0.000000000000000 );
#39 = PRODUCT_CONTEXT( '', #9, 'mechanical' );
#40 = PRODUCT_DEFINITION_FORMATION_WITH_SPECIFIED_SOURCE( ' ', 'NONE', #22, .NOT_KNOWN. );
#41 = CLOSED_SHELL( '', ( #46, #47, #48, #49 ) );
#42 = CARTESIAN_POINT( '', ( 0.000000000000000, 0.000000000000000, 0.000000000000000 ) );
#43 = DIRECTION( '', ( 0.000000000000000, 0.000000000000000, 1.00000000000000 ) );
#44 = DIRECTION( '', ( 1.00000000000000, 0.000000000000000, 0.000000000000000 ) );
#45 =  ( NAMED_UNIT( #31 )LENGTH_UNIT(  )SI_UNIT( .MILLI., .METRE. ) );
#46 = ADVANCED_FACE( '', ( #51, #52 ), #53, .F. );
#47 = ADVANCED_FACE( '', ( #54, #55 ), #56, .T. );
#48 = ADVANCED_FACE( '', ( #57, #58 ), #59, .T. );
#49 = ADVANCED_FACE( '', ( #60, #61 ), #62, .F. );
#51 = FACE_OUTER_BOUND( '', #63, .T. );
#52 = FACE_OUTER_BOUND( '', #64, .T. );
#53 = CYLINDRICAL_SURFACE( '', #65, 2.75590551181102 );
#54 = FACE_OUTER_BOUND( '', #66, .T. );
#55 = FACE_OUTER_BOUND( '', #67, .T. );
#56 = CYLINDRICAL_SURFACE( '', #68, 2.81496062992126 );
#57 = FACE_BOUND( '', #69, .T. );
#58 = FACE_OUTER_BOUND( '', #70, .T. );
#59 = PLANE( '', #71 );
#60 = FACE_BOUND( '', #72, .T. );
#61 = FACE_OUTER_BOUND( '', #73, .T. );
#62 = PLANE( '', #74 );
#63 = EDGE_LOOP( '', ( #75 ) );
#64 = EDGE_LOOP( '', ( #76 ) );
#65 = AXIS2_PLACEMENT_3D( '', #77, #78, #79 );
#66 = EDGE_LOOP( '', ( #80 ) );
#67 = EDGE_LOOP( '', ( #81 ) );
#68 = AXIS2_PLACEMENT_3D( '', #82, #83, #84 );
#69 = EDGE_LOOP( '', ( #85 ) );
#70 = EDGE_LOOP( '', ( #86 ) );
#71 = AXIS2_PLACEMENT_3D( '', #87, #88, #89 );
#72 = EDGE_LOOP( '', ( #90 ) );
#73 = EDGE_LOOP( '', ( #91 ) );
#74 = AXIS2_PLACEMENT_3D( '', #92, #93, #94 );
#75 = ORIENTED_EDGE( '', *, *, #95, .F. );
#76 = ORIENTED_EDGE( '', *, *, #96, .T. );
#77 = CARTESIAN_POINT( '', ( 0.000000000000000, 0.000000000000000, 0.157480314960630 ) );
#78 = DIRECTION( '', ( 0.000000000000000, -0.000000000000000, 1.00000000000000 ) );
#79 = DIRECTION( '', ( -1.00000000000000, 0.000000000000000, 0.000000000000000 ) );
#80 = ORIENTED_EDGE( '', *, *, #97, .T. );
#81 = ORIENTED_EDGE( '', *, *, #98, .F. );
#82 = CARTESIAN_POINT( '', ( 0.000000000000000, 0.000000000000000, 0.157480314960630 ) );
#83 = DIRECTION( '', ( 0.000000000000000, -0.000000000000000, 1.00000000000000 ) );
#84 = DIRECTION( '', ( -1.00000000000000, 0.000000000000000, 0.000000000000000 ) );
#85 = ORIENTED_EDGE( '', *, *, #96, .F. );
#86 = ORIENTED_EDGE( '', *, *, #98, .T. );
#87 = CARTESIAN_POINT( '', ( 0.000000000000000, 0.000000000000000, 0.000000000000000 ) );
#88 = DIRECTION( '', ( 0.000000000000000, 0.000000000000000, -1.00000000000000 ) );
#89 = DIRECTION( '', ( -1.00000000000000, 0.000000000000000, 0.000000000000000 ) );
#90 = ORIENTED_EDGE( '', *, *, #95, .T. );
#91 = ORIENTED_EDGE( '', *, *, #97, .F. );
#92 = CARTESIAN_POINT( '', ( 0.000000000000000, 0.000000000000000, 0.157480314960630 ) );
#93 = DIRECTION( '', ( 0.000000000000000, 0.000000000000000, -1.00000000000000 ) );
#94 = DIRECTION( '', ( -1.00000000000000, 0.000000000000000, 0.000000000000000 ) );
#95 = EDGE_CURVE( '', #99, #99, #100, .T. );
#96 = EDGE_CURVE( '', #101, #101, #102, .T. );
#97 = EDGE_CURVE( '', #103, #103, #104, .T. );
#98 = EDGE_CURVE( '', #105, #105, #106, .T. );
#99 = VERTEX_POINT( '', #107 );
#100 = CIRCLE( '', #108, 2.75590551181102 );
#101 = VERTEX_POINT( '', #109 );
#102 = CIRCLE( '', #110, 2.75590551181102 );
#103 = VERTEX_POINT( '', #111 );
#104 = CIRCLE( '', #112, 2.81496062992126 );
#105 = VERTEX_POINT( '', #113 );
#106 = CIRCLE( '', #114, 2.81496062992126 );
#107 = CARTESIAN_POINT( '', ( 2.75590551181102, 0.000000000000000, 0.157480314960630 ) );
#108 = AXIS2_PLACEMENT_3D( '', #115, #116, #117 );
#109 = CARTESIAN_POINT( '', ( 2.75590551181102, 0.000000000000000, 0.000000000000000 ) );
#110 = AXIS2_PLACEMENT_3D( '', #118, #119, #120 );
#111 = CARTESIAN_POINT( '', ( 2.81496062992126, 0.000000000000000, 0.157480314960630 ) );
#112 = AXIS2_PLACEMENT_3D( '', #121, #122, #123 );
#113 = CARTESIAN_POINT( '', ( 2.81496062992126, 0.000000000000000, 0.000000000000000 ) );
#114 = AXIS2_PLACEMENT_3D( '', #124, #125, #126 );
#115 = CARTESIAN_POINT( '', ( 0.000000000000000, 0.000000000000000, 0.157480314960630 ) );
#116 = DIRECTION( '', ( 0.000000000000000, 0.000000000000000, -1.00000000000000 ) );
#117 = DIRECTION( '', ( 1.00000000000000, 0.000000000000000, 0.000000000000000 ) );
#118 = CARTESIAN_POINT( '', ( 0.000000000000000, 0.000000000000000, 0.000000000000000 ) );
#119 = DIRECTION( '', ( 0.000000000000000, 0.000000000000000, -1.00000000000000 ) );
#120 = DIRECTION( '', ( 1.00000000000000, 0.000000000000000, 0.000000000000000 ) );
#121 = CARTESIAN_POINT( '', ( 0.000000000000000, 0.000000000000000, 0.157480314960630 ) );
#122 = DIRECTION( '', ( 0.000000000000000, 0.000000000000000, -1.00000000000000 ) );
#123 = DIRECTION( '', ( 1.00000000000000, 0.000000000000000, 0.000000000000000 ) );
#124 = CARTESIAN_POINT( '', ( 0.000000000000000, 0.000000000000000, 0.000000000000000 ) );
#125 = DIRECTION( '', ( 0.000000000000000, 0.000000000000000, -1.00000000000000 ) );
#126 = DIRECTION( '', ( 1.00000000000000, 0.000000000000000, 0.000000000000000 ) );
ENDSEC;
END-ISO-10303-21;
