ISO-10303-21;
HEADER;
/* Generated by software containing ST-Developer
 * from STEP Tools, Inc. (www.steptools.com) 
 */

FILE_DESCRIPTION(
/* description */ (''),
/* implementation_level */ '2;1');

FILE_NAME(
/* name */ 
'D:/Fus\X\E9es de mod\X\E9lisme/Projet MK/MK III (motor DIY)/fusion 36
0/Pi\X\E8ces RMS29/bouchon rms29 v1.step',
/* time_stamp */ '2022-02-02T08:39:59+01:00',
/* author */ (''),
/* organization */ (''),
/* preprocessor_version */ 'ST-DEVELOPER v18.1',
/* originating_system */ 'Autodesk Translation Framework v10.13.0.1454',

/* authorisation */ '');

FILE_SCHEMA (('AUTOMOTIVE_DESIGN { 1 0 10303 214 3 1 1 }'));
ENDSEC;

DATA;
#10=MECHANICAL_DESIGN_GEOMETRIC_PRESENTATION_REPRESENTATION('',(#13),#456);
#11=SHAPE_REPRESENTATION_RELATIONSHIP('SRR','None',#463,#12);
#12=ADVANCED_BREP_SHAPE_REPRESENTATION('',(#14),#455);
#13=STYLED_ITEM('',(#472),#14);
#14=MANIFOLD_SOLID_BREP('Corps1',#246);
#15=FACE_BOUND('',#50,.T.);
#16=FACE_BOUND('',#54,.T.);
#17=FACE_BOUND('',#57,.T.);
#18=FACE_BOUND('',#61,.T.);
#19=PLANE('',#266);
#20=PLANE('',#275);
#21=PLANE('',#279);
#22=PLANE('',#287);
#23=PLANE('',#291);
#24=PLANE('',#294);
#25=CYLINDRICAL_SURFACE('',#264,7.95);
#26=CYLINDRICAL_SURFACE('',#272,7.95);
#27=CYLINDRICAL_SURFACE('',#285,7.95);
#28=CYLINDRICAL_SURFACE('',#295,5.9);
#29=CYLINDRICAL_SURFACE('',#296,5.9);
#30=FACE_OUTER_BOUND('',#47,.T.);
#31=FACE_OUTER_BOUND('',#48,.T.);
#32=FACE_OUTER_BOUND('',#49,.T.);
#33=FACE_OUTER_BOUND('',#51,.T.);
#34=FACE_OUTER_BOUND('',#52,.T.);
#35=FACE_OUTER_BOUND('',#53,.T.);
#36=FACE_OUTER_BOUND('',#55,.T.);
#37=FACE_OUTER_BOUND('',#56,.T.);
#38=FACE_OUTER_BOUND('',#58,.T.);
#39=FACE_OUTER_BOUND('',#59,.T.);
#40=FACE_OUTER_BOUND('',#60,.T.);
#41=FACE_OUTER_BOUND('',#62,.T.);
#42=FACE_OUTER_BOUND('',#63,.T.);
#43=FACE_OUTER_BOUND('',#64,.T.);
#44=FACE_OUTER_BOUND('',#65,.T.);
#45=FACE_OUTER_BOUND('',#66,.T.);
#46=FACE_OUTER_BOUND('',#67,.T.);
#47=EDGE_LOOP('',(#161,#162,#163,#164,#165));
#48=EDGE_LOOP('',(#166,#167,#168,#169,#170));
#49=EDGE_LOOP('',(#171));
#50=EDGE_LOOP('',(#172));
#51=EDGE_LOOP('',(#173,#174,#175,#176,#177));
#52=EDGE_LOOP('',(#178,#179,#180,#181,#182,#183));
#53=EDGE_LOOP('',(#184));
#54=EDGE_LOOP('',(#185));
#55=EDGE_LOOP('',(#186,#187,#188,#189,#190));
#56=EDGE_LOOP('',(#191));
#57=EDGE_LOOP('',(#192));
#58=EDGE_LOOP('',(#193,#194,#195,#196,#197));
#59=EDGE_LOOP('',(#198,#199,#200,#201,#202));
#60=EDGE_LOOP('',(#203));
#61=EDGE_LOOP('',(#204));
#62=EDGE_LOOP('',(#205,#206,#207,#208));
#63=EDGE_LOOP('',(#209));
#64=EDGE_LOOP('',(#210,#211,#212,#213));
#65=EDGE_LOOP('',(#214));
#66=EDGE_LOOP('',(#215,#216,#217,#218));
#67=EDGE_LOOP('',(#219,#220,#221,#222));
#68=LINE('',#391,#79);
#69=LINE('',#396,#80);
#70=LINE('',#406,#81);
#71=LINE('',#410,#82);
#72=LINE('',#420,#83);
#73=LINE('',#428,#84);
#74=LINE('',#434,#85);
#75=LINE('',#441,#86);
#76=LINE('',#447,#87);
#77=LINE('',#450,#88);
#78=LINE('',#452,#89);
#79=VECTOR('',#305,7.85);
#80=VECTOR('',#312,7.95);
#81=VECTOR('',#323,7.85);
#82=VECTOR('',#328,7.95);
#83=VECTOR('',#341,7.85);
#84=VECTOR('',#350,7.85);
#85=VECTOR('',#357,7.95);
#86=VECTOR('',#366,7.7);
#87=VECTOR('',#375,7.7);
#88=VECTOR('',#380,5.9);
#89=VECTOR('',#383,5.9);
#90=CIRCLE('',#261,7.95);
#91=CIRCLE('',#262,7.95);
#92=CIRCLE('',#263,7.75);
#93=CIRCLE('',#265,7.95);
#94=CIRCLE('',#267,5.9);
#95=CIRCLE('',#269,7.95);
#96=CIRCLE('',#270,7.95);
#97=CIRCLE('',#271,7.75);
#98=CIRCLE('',#273,7.95);
#99=CIRCLE('',#274,7.95);
#100=CIRCLE('',#276,5.9);
#101=CIRCLE('',#278,7.75);
#102=CIRCLE('',#280,5.9);
#103=CIRCLE('',#282,7.75);
#104=CIRCLE('',#283,7.95);
#105=CIRCLE('',#284,7.95);
#106=CIRCLE('',#286,7.95);
#107=CIRCLE('',#288,5.9);
#108=CIRCLE('',#290,7.45);
#109=CIRCLE('',#293,7.45);
#110=VERTEX_POINT('',#386);
#111=VERTEX_POINT('',#387);
#112=VERTEX_POINT('',#390);
#113=VERTEX_POINT('',#394);
#114=VERTEX_POINT('',#398);
#115=VERTEX_POINT('',#401);
#116=VERTEX_POINT('',#402);
#117=VERTEX_POINT('',#405);
#118=VERTEX_POINT('',#409);
#119=VERTEX_POINT('',#411);
#120=VERTEX_POINT('',#415);
#121=VERTEX_POINT('',#418);
#122=VERTEX_POINT('',#422);
#123=VERTEX_POINT('',#425);
#124=VERTEX_POINT('',#427);
#125=VERTEX_POINT('',#429);
#126=VERTEX_POINT('',#433);
#127=VERTEX_POINT('',#437);
#128=VERTEX_POINT('',#440);
#129=VERTEX_POINT('',#445);
#130=EDGE_CURVE('',#110,#111,#90,.T.);
#131=EDGE_CURVE('',#111,#110,#91,.T.);
#132=EDGE_CURVE('',#110,#112,#68,.T.);
#133=EDGE_CURVE('',#112,#112,#92,.T.);
#134=EDGE_CURVE('',#113,#113,#93,.T.);
#135=EDGE_CURVE('',#113,#111,#69,.T.);
#136=EDGE_CURVE('',#114,#114,#94,.T.);
#137=EDGE_CURVE('',#115,#116,#95,.T.);
#138=EDGE_CURVE('',#116,#115,#96,.T.);
#139=EDGE_CURVE('',#115,#117,#70,.T.);
#140=EDGE_CURVE('',#117,#117,#97,.T.);
#141=EDGE_CURVE('',#116,#118,#71,.T.);
#142=EDGE_CURVE('',#119,#118,#98,.T.);
#143=EDGE_CURVE('',#118,#119,#99,.T.);
#144=EDGE_CURVE('',#120,#120,#100,.T.);
#145=EDGE_CURVE('',#121,#121,#101,.T.);
#146=EDGE_CURVE('',#121,#119,#72,.T.);
#147=EDGE_CURVE('',#122,#122,#102,.T.);
#148=EDGE_CURVE('',#123,#123,#103,.T.);
#149=EDGE_CURVE('',#123,#124,#73,.T.);
#150=EDGE_CURVE('',#124,#125,#104,.T.);
#151=EDGE_CURVE('',#125,#124,#105,.T.);
#152=EDGE_CURVE('',#125,#126,#74,.T.);
#153=EDGE_CURVE('',#126,#126,#106,.T.);
#154=EDGE_CURVE('',#127,#127,#107,.T.);
#155=EDGE_CURVE('',#126,#128,#75,.T.);
#156=EDGE_CURVE('',#128,#128,#108,.T.);
#157=EDGE_CURVE('',#129,#129,#109,.T.);
#158=EDGE_CURVE('',#129,#113,#76,.T.);
#159=EDGE_CURVE('',#122,#127,#77,.T.);
#160=EDGE_CURVE('',#114,#120,#78,.T.);
#161=ORIENTED_EDGE('',*,*,#130,.T.);
#162=ORIENTED_EDGE('',*,*,#131,.T.);
#163=ORIENTED_EDGE('',*,*,#132,.T.);
#164=ORIENTED_EDGE('',*,*,#133,.T.);
#165=ORIENTED_EDGE('',*,*,#132,.F.);
#166=ORIENTED_EDGE('',*,*,#134,.F.);
#167=ORIENTED_EDGE('',*,*,#135,.T.);
#168=ORIENTED_EDGE('',*,*,#130,.F.);
#169=ORIENTED_EDGE('',*,*,#131,.F.);
#170=ORIENTED_EDGE('',*,*,#135,.F.);
#171=ORIENTED_EDGE('',*,*,#133,.F.);
#172=ORIENTED_EDGE('',*,*,#136,.F.);
#173=ORIENTED_EDGE('',*,*,#137,.T.);
#174=ORIENTED_EDGE('',*,*,#138,.T.);
#175=ORIENTED_EDGE('',*,*,#139,.T.);
#176=ORIENTED_EDGE('',*,*,#140,.T.);
#177=ORIENTED_EDGE('',*,*,#139,.F.);
#178=ORIENTED_EDGE('',*,*,#137,.F.);
#179=ORIENTED_EDGE('',*,*,#138,.F.);
#180=ORIENTED_EDGE('',*,*,#141,.T.);
#181=ORIENTED_EDGE('',*,*,#142,.F.);
#182=ORIENTED_EDGE('',*,*,#143,.F.);
#183=ORIENTED_EDGE('',*,*,#141,.F.);
#184=ORIENTED_EDGE('',*,*,#140,.F.);
#185=ORIENTED_EDGE('',*,*,#144,.F.);
#186=ORIENTED_EDGE('',*,*,#145,.T.);
#187=ORIENTED_EDGE('',*,*,#146,.T.);
#188=ORIENTED_EDGE('',*,*,#142,.T.);
#189=ORIENTED_EDGE('',*,*,#143,.T.);
#190=ORIENTED_EDGE('',*,*,#146,.F.);
#191=ORIENTED_EDGE('',*,*,#145,.F.);
#192=ORIENTED_EDGE('',*,*,#147,.F.);
#193=ORIENTED_EDGE('',*,*,#148,.T.);
#194=ORIENTED_EDGE('',*,*,#149,.T.);
#195=ORIENTED_EDGE('',*,*,#150,.T.);
#196=ORIENTED_EDGE('',*,*,#151,.T.);
#197=ORIENTED_EDGE('',*,*,#149,.F.);
#198=ORIENTED_EDGE('',*,*,#150,.F.);
#199=ORIENTED_EDGE('',*,*,#151,.F.);
#200=ORIENTED_EDGE('',*,*,#152,.T.);
#201=ORIENTED_EDGE('',*,*,#153,.F.);
#202=ORIENTED_EDGE('',*,*,#152,.F.);
#203=ORIENTED_EDGE('',*,*,#148,.F.);
#204=ORIENTED_EDGE('',*,*,#154,.F.);
#205=ORIENTED_EDGE('',*,*,#153,.T.);
#206=ORIENTED_EDGE('',*,*,#155,.T.);
#207=ORIENTED_EDGE('',*,*,#156,.T.);
#208=ORIENTED_EDGE('',*,*,#155,.F.);
#209=ORIENTED_EDGE('',*,*,#156,.F.);
#210=ORIENTED_EDGE('',*,*,#157,.T.);
#211=ORIENTED_EDGE('',*,*,#158,.T.);
#212=ORIENTED_EDGE('',*,*,#134,.T.);
#213=ORIENTED_EDGE('',*,*,#158,.F.);
#214=ORIENTED_EDGE('',*,*,#157,.F.);
#215=ORIENTED_EDGE('',*,*,#147,.T.);
#216=ORIENTED_EDGE('',*,*,#159,.T.);
#217=ORIENTED_EDGE('',*,*,#154,.T.);
#218=ORIENTED_EDGE('',*,*,#159,.F.);
#219=ORIENTED_EDGE('',*,*,#136,.T.);
#220=ORIENTED_EDGE('',*,*,#160,.T.);
#221=ORIENTED_EDGE('',*,*,#144,.T.);
#222=ORIENTED_EDGE('',*,*,#160,.F.);
#223=CONICAL_SURFACE('',#260,7.85,0.785398163397448);
#224=CONICAL_SURFACE('',#268,7.85,0.785398163397448);
#225=CONICAL_SURFACE('',#277,7.85,0.785398163397448);
#226=CONICAL_SURFACE('',#281,7.85,0.785398163397448);
#227=CONICAL_SURFACE('',#289,7.7,0.785398163397449);
#228=CONICAL_SURFACE('',#292,7.7,0.785398163397448);
#229=ADVANCED_FACE('',(#30),#223,.T.);
#230=ADVANCED_FACE('',(#31),#25,.T.);
#231=ADVANCED_FACE('',(#32,#15),#19,.F.);
#232=ADVANCED_FACE('',(#33),#224,.T.);
#233=ADVANCED_FACE('',(#34),#26,.T.);
#234=ADVANCED_FACE('',(#35,#16),#20,.T.);
#235=ADVANCED_FACE('',(#36),#225,.T.);
#236=ADVANCED_FACE('',(#37,#17),#21,.F.);
#237=ADVANCED_FACE('',(#38),#226,.T.);
#238=ADVANCED_FACE('',(#39),#27,.T.);
#239=ADVANCED_FACE('',(#40,#18),#22,.T.);
#240=ADVANCED_FACE('',(#41),#227,.T.);
#241=ADVANCED_FACE('',(#42),#23,.F.);
#242=ADVANCED_FACE('',(#43),#228,.T.);
#243=ADVANCED_FACE('',(#44),#24,.T.);
#244=ADVANCED_FACE('',(#45),#28,.T.);
#245=ADVANCED_FACE('',(#46),#29,.T.);
#246=CLOSED_SHELL('',(#229,#230,#231,#232,#233,#234,#235,#236,#237,#238,
#239,#240,#241,#242,#243,#244,#245));
#247=DERIVED_UNIT_ELEMENT(#249,1.);
#248=DERIVED_UNIT_ELEMENT(#458,-3.);
#249=(
MASS_UNIT()
NAMED_UNIT(*)
SI_UNIT(.KILO.,.GRAM.)
);
#250=DERIVED_UNIT((#247,#248));
#251=MEASURE_REPRESENTATION_ITEM('density measure',
POSITIVE_RATIO_MEASURE(7850.),#250);
#252=PROPERTY_DEFINITION_REPRESENTATION(#257,#254);
#253=PROPERTY_DEFINITION_REPRESENTATION(#258,#255);
#254=REPRESENTATION('material name',(#256),#455);
#255=REPRESENTATION('density',(#251),#455);
#256=DESCRIPTIVE_REPRESENTATION_ITEM('Acier','Acier');
#257=PROPERTY_DEFINITION('material property','material name',#465);
#258=PROPERTY_DEFINITION('material property','density of part',#465);
#259=AXIS2_PLACEMENT_3D('placement',#384,#297,#298);
#260=AXIS2_PLACEMENT_3D('',#385,#299,#300);
#261=AXIS2_PLACEMENT_3D('',#388,#301,#302);
#262=AXIS2_PLACEMENT_3D('',#389,#303,#304);
#263=AXIS2_PLACEMENT_3D('',#392,#306,#307);
#264=AXIS2_PLACEMENT_3D('',#393,#308,#309);
#265=AXIS2_PLACEMENT_3D('',#395,#310,#311);
#266=AXIS2_PLACEMENT_3D('',#397,#313,#314);
#267=AXIS2_PLACEMENT_3D('',#399,#315,#316);
#268=AXIS2_PLACEMENT_3D('',#400,#317,#318);
#269=AXIS2_PLACEMENT_3D('',#403,#319,#320);
#270=AXIS2_PLACEMENT_3D('',#404,#321,#322);
#271=AXIS2_PLACEMENT_3D('',#407,#324,#325);
#272=AXIS2_PLACEMENT_3D('',#408,#326,#327);
#273=AXIS2_PLACEMENT_3D('',#412,#329,#330);
#274=AXIS2_PLACEMENT_3D('',#413,#331,#332);
#275=AXIS2_PLACEMENT_3D('',#414,#333,#334);
#276=AXIS2_PLACEMENT_3D('',#416,#335,#336);
#277=AXIS2_PLACEMENT_3D('',#417,#337,#338);
#278=AXIS2_PLACEMENT_3D('',#419,#339,#340);
#279=AXIS2_PLACEMENT_3D('',#421,#342,#343);
#280=AXIS2_PLACEMENT_3D('',#423,#344,#345);
#281=AXIS2_PLACEMENT_3D('',#424,#346,#347);
#282=AXIS2_PLACEMENT_3D('',#426,#348,#349);
#283=AXIS2_PLACEMENT_3D('',#430,#351,#352);
#284=AXIS2_PLACEMENT_3D('',#431,#353,#354);
#285=AXIS2_PLACEMENT_3D('',#432,#355,#356);
#286=AXIS2_PLACEMENT_3D('',#435,#358,#359);
#287=AXIS2_PLACEMENT_3D('',#436,#360,#361);
#288=AXIS2_PLACEMENT_3D('',#438,#362,#363);
#289=AXIS2_PLACEMENT_3D('',#439,#364,#365);
#290=AXIS2_PLACEMENT_3D('',#442,#367,#368);
#291=AXIS2_PLACEMENT_3D('',#443,#369,#370);
#292=AXIS2_PLACEMENT_3D('',#444,#371,#372);
#293=AXIS2_PLACEMENT_3D('',#446,#373,#374);
#294=AXIS2_PLACEMENT_3D('',#448,#376,#377);
#295=AXIS2_PLACEMENT_3D('',#449,#378,#379);
#296=AXIS2_PLACEMENT_3D('',#451,#381,#382);
#297=DIRECTION('axis',(0.,0.,1.));
#298=DIRECTION('refdir',(1.,0.,0.));
#299=DIRECTION('center_axis',(0.,1.,0.));
#300=DIRECTION('ref_axis',(-1.,0.,0.));
#301=DIRECTION('center_axis',(0.,-1.,0.));
#302=DIRECTION('ref_axis',(-1.,0.,0.));
#303=DIRECTION('center_axis',(0.,-1.,0.));
#304=DIRECTION('ref_axis',(-1.,0.,0.));
#305=DIRECTION('',(-0.707106781186548,-0.707106781186548,8.65956056235493E-17));
#306=DIRECTION('center_axis',(0.,1.,0.));
#307=DIRECTION('ref_axis',(-1.,0.,0.));
#308=DIRECTION('center_axis',(0.,1.,0.));
#309=DIRECTION('ref_axis',(1.,0.,0.));
#310=DIRECTION('center_axis',(0.,1.,0.));
#311=DIRECTION('ref_axis',(1.,0.,0.));
#312=DIRECTION('',(0.,-1.,0.));
#313=DIRECTION('center_axis',(0.,1.,0.));
#314=DIRECTION('ref_axis',(-1.,0.,0.));
#315=DIRECTION('center_axis',(0.,-1.,0.));
#316=DIRECTION('ref_axis',(-1.,0.,0.));
#317=DIRECTION('center_axis',(0.,-1.,0.));
#318=DIRECTION('ref_axis',(-1.,0.,0.));
#319=DIRECTION('center_axis',(0.,1.,0.));
#320=DIRECTION('ref_axis',(-1.,0.,0.));
#321=DIRECTION('center_axis',(0.,1.,0.));
#322=DIRECTION('ref_axis',(-1.,0.,0.));
#323=DIRECTION('',(-0.707106781186548,0.707106781186548,-8.65956056235493E-17));
#324=DIRECTION('center_axis',(0.,-1.,0.));
#325=DIRECTION('ref_axis',(-1.,0.,0.));
#326=DIRECTION('center_axis',(0.,1.,0.));
#327=DIRECTION('ref_axis',(1.,0.,0.));
#328=DIRECTION('',(0.,-1.,0.));
#329=DIRECTION('center_axis',(0.,-1.,0.));
#330=DIRECTION('ref_axis',(-1.,0.,0.));
#331=DIRECTION('center_axis',(0.,-1.,0.));
#332=DIRECTION('ref_axis',(-1.,0.,0.));
#333=DIRECTION('center_axis',(0.,1.,0.));
#334=DIRECTION('ref_axis',(-1.,0.,0.));
#335=DIRECTION('center_axis',(0.,1.,0.));
#336=DIRECTION('ref_axis',(-1.,0.,0.));
#337=DIRECTION('center_axis',(0.,1.,0.));
#338=DIRECTION('ref_axis',(-1.,0.,0.));
#339=DIRECTION('center_axis',(0.,1.,0.));
#340=DIRECTION('ref_axis',(-1.,0.,0.));
#341=DIRECTION('',(0.707106781186548,0.707106781186548,8.65956056235493E-17));
#342=DIRECTION('center_axis',(0.,1.,0.));
#343=DIRECTION('ref_axis',(-1.,0.,0.));
#344=DIRECTION('center_axis',(0.,-1.,0.));
#345=DIRECTION('ref_axis',(-1.,0.,0.));
#346=DIRECTION('center_axis',(0.,-1.,0.));
#347=DIRECTION('ref_axis',(-1.,0.,0.));
#348=DIRECTION('center_axis',(0.,-1.,0.));
#349=DIRECTION('ref_axis',(-1.,0.,0.));
#350=DIRECTION('',(0.707106781186548,-0.707106781186548,-8.65956056235493E-17));
#351=DIRECTION('center_axis',(0.,1.,0.));
#352=DIRECTION('ref_axis',(-1.,0.,0.));
#353=DIRECTION('center_axis',(0.,1.,0.));
#354=DIRECTION('ref_axis',(-1.,0.,0.));
#355=DIRECTION('center_axis',(0.,1.,0.));
#356=DIRECTION('ref_axis',(1.,0.,0.));
#357=DIRECTION('',(0.,-1.,0.));
#358=DIRECTION('center_axis',(0.,-1.,0.));
#359=DIRECTION('ref_axis',(1.,0.,0.));
#360=DIRECTION('center_axis',(0.,1.,0.));
#361=DIRECTION('ref_axis',(-1.,0.,0.));
#362=DIRECTION('center_axis',(0.,1.,0.));
#363=DIRECTION('ref_axis',(-1.,0.,0.));
#364=DIRECTION('center_axis',(0.,1.,0.));
#365=DIRECTION('ref_axis',(1.,0.,0.));
#366=DIRECTION('',(0.707106781186548,-0.707106781186547,-8.65956056235494E-17));
#367=DIRECTION('center_axis',(0.,1.,0.));
#368=DIRECTION('ref_axis',(1.,0.,0.));
#369=DIRECTION('center_axis',(0.,1.,0.));
#370=DIRECTION('ref_axis',(1.,0.,0.));
#371=DIRECTION('center_axis',(0.,-1.,0.));
#372=DIRECTION('ref_axis',(1.,0.,0.));
#373=DIRECTION('center_axis',(0.,-1.,0.));
#374=DIRECTION('ref_axis',(1.,0.,0.));
#375=DIRECTION('',(-0.707106781186548,-0.707106781186548,8.65956056235493E-17));
#376=DIRECTION('center_axis',(0.,1.,0.));
#377=DIRECTION('ref_axis',(1.,0.,0.));
#378=DIRECTION('center_axis',(0.,-1.,0.));
#379=DIRECTION('ref_axis',(-1.,0.,0.));
#380=DIRECTION('',(0.,-1.,0.));
#381=DIRECTION('center_axis',(0.,-1.,0.));
#382=DIRECTION('ref_axis',(-1.,0.,0.));
#383=DIRECTION('',(0.,-1.,0.));
#384=CARTESIAN_POINT('',(0.,0.,0.));
#385=CARTESIAN_POINT('Origin',(0.,16.1,0.));
#386=CARTESIAN_POINT('',(7.95,16.2,9.73594205322146E-16));
#387=CARTESIAN_POINT('',(-7.95,16.2,9.73594205322146E-16));
#388=CARTESIAN_POINT('Origin',(0.,16.2,0.));
#389=CARTESIAN_POINT('Origin',(0.,16.2,0.));
#390=CARTESIAN_POINT('',(7.75,16.,-9.49101269339199E-16));
#391=CARTESIAN_POINT('',(7.85,16.1,-9.61347737330672E-16));
#392=CARTESIAN_POINT('Origin',(0.,16.,0.));
#393=CARTESIAN_POINT('Origin',(0.,0.,0.));
#394=CARTESIAN_POINT('',(-7.95,19.5,9.73594205322146E-16));
#395=CARTESIAN_POINT('Origin',(0.,19.5,0.));
#396=CARTESIAN_POINT('',(-7.95,0.,9.73594205322146E-16));
#397=CARTESIAN_POINT('Origin',(0.,16.,0.));
#398=CARTESIAN_POINT('',(5.9,16.,-7.22541611496939E-16));
#399=CARTESIAN_POINT('Origin',(0.,16.,0.));
#400=CARTESIAN_POINT('Origin',(0.,12.5,0.));
#401=CARTESIAN_POINT('',(7.95,12.4,-9.73594205322146E-16));
#402=CARTESIAN_POINT('',(-7.95,12.4,9.73594205322146E-16));
#403=CARTESIAN_POINT('Origin',(0.,12.4,0.));
#404=CARTESIAN_POINT('Origin',(0.,12.4,0.));
#405=CARTESIAN_POINT('',(7.75,12.6,9.49101269339199E-16));
#406=CARTESIAN_POINT('',(7.85,12.5,9.61347737330672E-16));
#407=CARTESIAN_POINT('Origin',(0.,12.6,0.));
#408=CARTESIAN_POINT('Origin',(0.,0.,0.));
#409=CARTESIAN_POINT('',(-7.95,7.8,9.73594205322146E-16));
#410=CARTESIAN_POINT('',(-7.95,0.,9.73594205322146E-16));
#411=CARTESIAN_POINT('',(7.95,7.8,9.73594205322146E-16));
#412=CARTESIAN_POINT('Origin',(0.,7.8,0.));
#413=CARTESIAN_POINT('Origin',(0.,7.8,0.));
#414=CARTESIAN_POINT('Origin',(0.,12.6,0.));
#415=CARTESIAN_POINT('',(5.9,12.6,-7.22541611496939E-16));
#416=CARTESIAN_POINT('Origin',(0.,12.6,0.));
#417=CARTESIAN_POINT('Origin',(0.,7.7,0.));
#418=CARTESIAN_POINT('',(7.75,7.6,-9.49101269339199E-16));
#419=CARTESIAN_POINT('Origin',(0.,7.6,0.));
#420=CARTESIAN_POINT('',(7.85,7.7,9.61347737330672E-16));
#421=CARTESIAN_POINT('Origin',(0.,7.6,0.));
#422=CARTESIAN_POINT('',(5.9,7.6,-7.22541611496939E-16));
#423=CARTESIAN_POINT('Origin',(0.,7.6,0.));
#424=CARTESIAN_POINT('Origin',(0.,4.1,0.));
#425=CARTESIAN_POINT('',(7.75,4.2,9.49101269339199E-16));
#426=CARTESIAN_POINT('Origin',(0.,4.2,0.));
#427=CARTESIAN_POINT('',(7.95,4.,-9.73594205322146E-16));
#428=CARTESIAN_POINT('',(7.85,4.1,-9.61347737330672E-16));
#429=CARTESIAN_POINT('',(-7.95,4.,9.73594205322146E-16));
#430=CARTESIAN_POINT('Origin',(0.,4.,0.));
#431=CARTESIAN_POINT('Origin',(0.,4.,0.));
#432=CARTESIAN_POINT('Origin',(0.,0.,0.));
#433=CARTESIAN_POINT('',(-7.95,0.5,-9.73594205322146E-16));
#434=CARTESIAN_POINT('',(-7.95,0.,9.73594205322146E-16));
#435=CARTESIAN_POINT('Origin',(0.,0.5,0.));
#436=CARTESIAN_POINT('Origin',(0.,4.2,0.));
#437=CARTESIAN_POINT('',(5.9,4.2,-7.22541611496939E-16));
#438=CARTESIAN_POINT('Origin',(0.,4.2,0.));
#439=CARTESIAN_POINT('Origin',(0.,0.25,0.));
#440=CARTESIAN_POINT('',(-7.45,0.,9.12361865364778E-16));
#441=CARTESIAN_POINT('',(-7.7,0.25,9.42978035343462E-16));
#442=CARTESIAN_POINT('Origin',(0.,0.,0.));
#443=CARTESIAN_POINT('Origin',(0.,0.,0.));
#444=CARTESIAN_POINT('Origin',(0.,19.75,0.));
#445=CARTESIAN_POINT('',(-7.45,20.,-9.12361865364778E-16));
#446=CARTESIAN_POINT('Origin',(0.,20.,0.));
#447=CARTESIAN_POINT('',(-7.7,19.75,9.42978035343462E-16));
#448=CARTESIAN_POINT('Origin',(0.,20.,0.));
#449=CARTESIAN_POINT('Origin',(0.,7.6,0.));
#450=CARTESIAN_POINT('',(5.9,7.6,7.22541611496939E-16));
#451=CARTESIAN_POINT('Origin',(0.,16.,0.));
#452=CARTESIAN_POINT('',(5.9,16.,7.22541611496939E-16));
#453=UNCERTAINTY_MEASURE_WITH_UNIT(LENGTH_MEASURE(0.01),#457,
'DISTANCE_ACCURACY_VALUE',
'Maximum model space distance between geometric entities at asserted c
onnectivities');
#454=UNCERTAINTY_MEASURE_WITH_UNIT(LENGTH_MEASURE(0.01),#457,
'DISTANCE_ACCURACY_VALUE',
'Maximum model space distance between geometric entities at asserted c
onnectivities');
#455=(
GEOMETRIC_REPRESENTATION_CONTEXT(3)
GLOBAL_UNCERTAINTY_ASSIGNED_CONTEXT((#453))
GLOBAL_UNIT_ASSIGNED_CONTEXT((#457,#459,#460))
REPRESENTATION_CONTEXT('','3D')
);
#456=(
GEOMETRIC_REPRESENTATION_CONTEXT(3)
GLOBAL_UNCERTAINTY_ASSIGNED_CONTEXT((#454))
GLOBAL_UNIT_ASSIGNED_CONTEXT((#457,#459,#460))
REPRESENTATION_CONTEXT('','3D')
);
#457=(
LENGTH_UNIT()
NAMED_UNIT(*)
SI_UNIT(.MILLI.,.METRE.)
);
#458=(
LENGTH_UNIT()
NAMED_UNIT(*)
SI_UNIT($,.METRE.)
);
#459=(
NAMED_UNIT(*)
PLANE_ANGLE_UNIT()
SI_UNIT($,.RADIAN.)
);
#460=(
NAMED_UNIT(*)
SI_UNIT($,.STERADIAN.)
SOLID_ANGLE_UNIT()
);
#461=SHAPE_DEFINITION_REPRESENTATION(#462,#463);
#462=PRODUCT_DEFINITION_SHAPE('',$,#465);
#463=SHAPE_REPRESENTATION('',(#259),#455);
#464=PRODUCT_DEFINITION_CONTEXT('part definition',#469,'design');
#465=PRODUCT_DEFINITION('bouchon rms29','bouchon rms29 v1',#466,#464);
#466=PRODUCT_DEFINITION_FORMATION('',$,#471);
#467=PRODUCT_RELATED_PRODUCT_CATEGORY('bouchon rms29 v1',
'bouchon rms29 v1',(#471));
#468=APPLICATION_PROTOCOL_DEFINITION('international standard',
'automotive_design',2009,#469);
#469=APPLICATION_CONTEXT(
'Core Data for Automotive Mechanical Design Process');
#470=PRODUCT_CONTEXT('part definition',#469,'mechanical');
#471=PRODUCT('bouchon rms29','bouchon rms29 v1',$,(#470));
#472=PRESENTATION_STYLE_ASSIGNMENT((#473));
#473=SURFACE_STYLE_USAGE(.BOTH.,#474);
#474=SURFACE_SIDE_STYLE('',(#475));
#475=SURFACE_STYLE_FILL_AREA(#476);
#476=FILL_AREA_STYLE('Acier - Satin\X\E9',(#477));
#477=FILL_AREA_STYLE_COLOUR('Acier - Satin\X\E9',#478);
#478=COLOUR_RGB('Acier - Satin\X\E9',0.627450980392157,0.627450980392157,
0.627450980392157);
ENDSEC;
END-ISO-10303-21;
