ISO-10303-21;
HEADER;
FILE_DESCRIPTION (( 'STEP AP214' ),
    '1' );
FILE_NAME ('Corps du ressort.STEP',
    '2022-01-27T12:43:01',
    ( '' ),
    ( '' ),
    'SwSTEP 2.0',
    'SolidWorks 2014',
    '' );
FILE_SCHEMA (( 'AUTOMOTIVE_DESIGN' ));
ENDSEC;

DATA;
#1 = EDGE_CURVE ( 'NONE', #213, #23, #181, .T. ) ;
#2 = VERTEX_POINT ( 'NONE', #158 ) ;
#3 = ADVANCED_FACE ( 'NONE', ( #27 ), #127, .F. ) ;
#4 = CARTESIAN_POINT ( 'NONE',  ( 4.249999999999992900, 5.204748896376241800E-016, 0.0000000000000000000 ) ) ;
#5 = DIRECTION ( 'NONE',  ( -1.000000000000000000, 0.0000000000000000000, 0.0000000000000000000 ) ) ;
#6 = CARTESIAN_POINT ( 'NONE',  ( 0.0000000000000000000, 0.0000000000000000000, 50.00000000000000000 ) ) ;
#7 = MECHANICAL_DESIGN_GEOMETRIC_PRESENTATION_REPRESENTATION (  '', ( #141 ), #241 ) ;
#8 = PRESENTATION_STYLE_ASSIGNMENT (( #53 ) ) ;
#9 = DIRECTION ( 'NONE',  ( -1.000000000000000000, 0.0000000000000000000, 0.0000000000000000000 ) ) ;
#10 = FACE_OUTER_BOUND ( 'NONE', #342, .T. ) ;
#11 = ORIENTED_EDGE ( 'NONE', *, *, #162, .T. ) ;
#12 = DIRECTION ( 'NONE',  ( -0.0000000000000000000, -0.0000000000000000000, -1.000000000000000000 ) ) ;
#13 =( NAMED_UNIT ( * ) SI_UNIT ( $, .STERADIAN. ) SOLID_ANGLE_UNIT ( ) );
#14 = PLANE ( 'NONE',  #266 ) ;
#15 = DIRECTION ( 'NONE',  ( -1.000000000000000000, 0.0000000000000000000, 0.0000000000000000000 ) ) ;
#16 = EDGE_CURVE ( 'NONE', #78, #50, #61, .T. ) ;
#17 = CONICAL_SURFACE ( 'NONE', #152, 4.249999999999990200, 1.029744258676651200 ) ;
#18 = ADVANCED_FACE ( 'NONE', ( #10 ), #31, .F. ) ;
#19 = CARTESIAN_POINT ( 'NONE',  ( 4.249999999999990200, 5.204748896376238900E-016, 45.00000000000000000 ) ) ;
#20 =( NAMED_UNIT ( * ) SI_UNIT ( $, .STERADIAN. ) SOLID_ANGLE_UNIT ( ) );
#21 = COLOUR_RGB ( '',0.7921568627450980000, 0.8196078431372548800, 0.9333333333333333500 ) ;
#22 = DIRECTION ( 'NONE',  ( 1.000000000000000000, 0.0000000000000000000, 0.0000000000000000000 ) ) ;
#23 = VERTEX_POINT ( 'NONE', #58 ) ;
#24 = VECTOR ( 'NONE', #105, 1000.000000000000000 ) ;
#25 = PRODUCT_RELATED_PRODUCT_CATEGORY ( 'part', '', ( #259 ) ) ;
#26 = EDGE_CURVE ( 'NONE', #252, #44, #301, .T. ) ;
#27 = FACE_OUTER_BOUND ( 'NONE', #103, .T. ) ;
#28 = ORIENTED_EDGE ( 'NONE', *, *, #295, .F. ) ;
#29 = ADVANCED_FACE ( 'NONE', ( #190, #102 ), #296, .T. ) ;
#30 = AXIS2_PLACEMENT_3D ( 'NONE', #168, #247, #281 ) ;
#31 = CYLINDRICAL_SURFACE ( 'NONE', #84, 2.000000000000000000 ) ;
#32 = EDGE_CURVE ( 'NONE', #185, #202, #208, .T. ) ;
#33 = DIRECTION ( 'NONE',  ( 1.000000000000000000, 0.0000000000000000000, 0.0000000000000000000 ) ) ;
#34 = DIRECTION ( 'NONE',  ( -1.000000000000000000, 0.0000000000000000000, 0.0000000000000000000 ) ) ;
#35 = ORIENTED_EDGE ( 'NONE', *, *, #92, .F. ) ;
#36 = ORIENTED_EDGE ( 'NONE', *, *, #129, .F. ) ;
#37 = FILL_AREA_STYLE ('',( #90 ) ) ;
#38 = DIRECTION ( 'NONE',  ( -1.000000000000000000, 0.0000000000000000000, 0.0000000000000000000 ) ) ;
#39 = FILL_AREA_STYLE_COLOUR ( '', #216 ) ;
#40 = ORIENTED_EDGE ( 'NONE', *, *, #1, .T. ) ;
#41 = CARTESIAN_POINT ( 'NONE',  ( 8.500000000000000000, 1.040949779275250100E-015, 50.00000000000000000 ) ) ;
#42 = PRODUCT_DEFINITION_FORMATION_WITH_SPECIFIED_SOURCE ( 'ANY', '', #259, .NOT_KNOWN. ) ;
#43 = CARTESIAN_POINT ( 'NONE',  ( 0.0000000000000000000, 0.0000000000000000000, 0.0000000000000000000 ) ) ;
#44 = VERTEX_POINT ( 'NONE', #232 ) ;
#45 = FILL_AREA_STYLE_COLOUR ( '', #192 ) ;
#46 = DIRECTION ( 'NONE',  ( 0.0000000000000000000, 0.0000000000000000000, 1.000000000000000000 ) ) ;
#47 =( LENGTH_UNIT ( ) NAMED_UNIT ( * ) SI_UNIT ( .MILLI., .METRE. ) );
#48 = LINE ( 'NONE', #19, #184 ) ;
#49 = AXIS2_PLACEMENT_3D ( 'NONE', #144, #197, #15 ) ;
#50 = VERTEX_POINT ( 'NONE', #264 ) ;
#51 = DIRECTION ( 'NONE',  ( 1.000000000000000000, 0.0000000000000000000, -0.0000000000000000000 ) ) ;
#52 = CYLINDRICAL_SURFACE ( 'NONE', #150, 4.249999999999992900 ) ;
#53 = SURFACE_STYLE_USAGE ( .BOTH. , #212 ) ;
#54 = CIRCLE ( 'NONE', #49, 2.000000000000000000 ) ;
#55 = DIRECTION ( 'NONE',  ( -0.8571673007021106700, 0.0000000000000000000, -0.5150380749100570400 ) ) ;
#56 = ORIENTED_EDGE ( 'NONE', *, *, #230, .T. ) ;
#57 = UNCERTAINTY_MEASURE_WITH_UNIT (LENGTH_MEASURE( 1.000000000000000100E-005 ), #82, 'distance_accuracy_value', 'NONE');
#58 = CARTESIAN_POINT ( 'NONE',  ( -4.249999999999990200, 0.0000000000000000000, 45.00000000000000000 ) ) ;
#59 = SURFACE_STYLE_FILL_AREA ( #335 ) ;
#60 = SURFACE_STYLE_USAGE ( .BOTH. , #280 ) ;
#61 = LINE ( 'NONE', #4, #24 ) ;
#62 = ORIENTED_EDGE ( 'NONE', *, *, #225, .F. ) ;
#63 = CARTESIAN_POINT ( 'NONE',  ( 0.0000000000000000000, 0.0000000000000000000, 0.0000000000000000000 ) ) ;
#64 = CARTESIAN_POINT ( 'NONE',  ( 0.0000000000000000000, 0.0000000000000000000, 50.00000000000000000 ) ) ;
#65 = CIRCLE ( 'NONE', #104, 8.500000000000000000 ) ;
#66 = ORIENTED_EDGE ( 'NONE', *, *, #26, .F. ) ;
#67 =( LENGTH_UNIT ( ) NAMED_UNIT ( * ) SI_UNIT ( .MILLI., .METRE. ) );
#68 = CARTESIAN_POINT ( 'NONE',  ( 2.000000000000000000, 3.827021247335472900E-016, 46.35193639281201400 ) ) ;
#69 = CARTESIAN_POINT ( 'NONE',  ( 0.0000000000000000000, 0.0000000000000000000, 5.000000000000004400 ) ) ;
#70 = DIRECTION ( 'NONE',  ( -0.0000000000000000000, -0.0000000000000000000, -1.000000000000000000 ) ) ;
#71 = EDGE_LOOP ( 'NONE', ( #56, #218, #142, #99 ) ) ;
#72 = MECHANICAL_DESIGN_GEOMETRIC_PRESENTATION_REPRESENTATION (  '', ( #282 ), #157 ) ;
#73 =( NAMED_UNIT ( * ) PLANE_ANGLE_UNIT ( ) SI_UNIT ( $, .RADIAN. ) );
#74 = FACE_OUTER_BOUND ( 'NONE', #293, .T. ) ;
#75 = DIRECTION ( 'NONE',  ( -1.000000000000000000, 0.0000000000000000000, 0.0000000000000000000 ) ) ;
#76 = VECTOR ( 'NONE', #55, 1000.000000000000000 ) ;
#77 = DIRECTION ( 'NONE',  ( -0.0000000000000000000, -0.0000000000000000000, -1.000000000000000000 ) ) ;
#78 = VERTEX_POINT ( 'NONE', #130 ) ;
#79 = DIRECTION ( 'NONE',  ( 1.000000000000000000, 0.0000000000000000000, 0.0000000000000000000 ) ) ;
#80 = CARTESIAN_POINT ( 'NONE',  ( -4.249999999999990200, 0.0000000000000000000, 45.00000000000000000 ) ) ;
#81 =( NAMED_UNIT ( * ) PLANE_ANGLE_UNIT ( ) SI_UNIT ( $, .RADIAN. ) );
#82 =( LENGTH_UNIT ( ) NAMED_UNIT ( * ) SI_UNIT ( .MILLI., .METRE. ) );
#83 = FACE_OUTER_BOUND ( 'NONE', #209, .T. ) ;
#84 = AXIS2_PLACEMENT_3D ( 'NONE', #134, #235, #33 ) ;
#85 = CARTESIAN_POINT ( 'NONE',  ( 0.0000000000000000000, 0.0000000000000000000, 45.00000000000000000 ) ) ;
#86 = CARTESIAN_POINT ( 'NONE',  ( -4.249999999999992900, 0.0000000000000000000, 0.0000000000000000000 ) ) ;
#87 = VECTOR ( 'NONE', #324, 1000.000000000000000 ) ;
#88 = ORIENTED_EDGE ( 'NONE', *, *, #236, .T. ) ;
#89 = AXIS2_PLACEMENT_3D ( 'NONE', #199, #116, #245 ) ;
#90 = FILL_AREA_STYLE_COLOUR ( '', #21 ) ;
#91 =( NAMED_UNIT ( * ) SI_UNIT ( $, .STERADIAN. ) SOLID_ANGLE_UNIT ( ) );
#92 = EDGE_CURVE ( 'NONE', #23, #227, #160, .T. ) ;
#93 = DIRECTION ( 'NONE',  ( -1.000000000000000000, 0.0000000000000000000, 0.0000000000000000000 ) ) ;
#94 = CARTESIAN_POINT ( 'NONE',  ( 0.0000000000000000000, 0.0000000000000000000, 50.00000000000000000 ) ) ;
#95 = AXIS2_PLACEMENT_3D ( 'NONE', #240, #137, #34 ) ;
#96 = DIRECTION ( 'NONE',  ( -0.0000000000000000000, -0.0000000000000000000, -1.000000000000000000 ) ) ;
#97 = EDGE_CURVE ( 'NONE', #213, #252, #169, .T. ) ;
#98 = SURFACE_STYLE_FILL_AREA ( #187 ) ;
#99 = ORIENTED_EDGE ( 'NONE', *, *, #1, .F. ) ;
#100 =( NAMED_UNIT ( * ) PLANE_ANGLE_UNIT ( ) SI_UNIT ( $, .RADIAN. ) );
#101 = FACE_OUTER_BOUND ( 'NONE', #71, .T. ) ;
#102 = FACE_OUTER_BOUND ( 'NONE', #133, .T. ) ;
#103 = EDGE_LOOP ( 'NONE', ( #128, #323, #111, #145 ) ) ;
#104 = AXIS2_PLACEMENT_3D ( 'NONE', #94, #330, #283 ) ;
#105 = DIRECTION ( 'NONE',  ( -0.0000000000000000000, -0.0000000000000000000, -1.000000000000000000 ) ) ;
#106 = CYLINDRICAL_SURFACE ( 'NONE', #95, 8.500000000000000000 ) ;
#107 =( NAMED_UNIT ( * ) SI_UNIT ( $, .STERADIAN. ) SOLID_ANGLE_UNIT ( ) );
#108 = DIRECTION ( 'NONE',  ( -0.0000000000000000000, -0.0000000000000000000, -1.000000000000000000 ) ) ;
#109 = CARTESIAN_POINT ( 'NONE',  ( -8.500000000000000000, 0.0000000000000000000, 0.0000000000000000000 ) ) ;
#110 = PRESENTATION_STYLE_ASSIGNMENT (( #60 ) ) ;
#111 = ORIENTED_EDGE ( 'NONE', *, *, #92, .T. ) ;
#112 = DIRECTION ( 'NONE',  ( 1.000000000000000000, 0.0000000000000000000, 0.0000000000000000000 ) ) ;
#113 = EDGE_LOOP ( 'NONE', ( #176, #28 ) ) ;
#114 = CARTESIAN_POINT ( 'NONE',  ( 2.000000000000000000, 0.0000000000000000000, 5.000000000000004400 ) ) ;
#115 = AXIS2_PLACEMENT_3D ( 'NONE', #6, #186, #79 ) ;
#116 = DIRECTION ( 'NONE',  ( -0.0000000000000000000, -0.0000000000000000000, -1.000000000000000000 ) ) ;
#117 = CARTESIAN_POINT ( 'NONE',  ( 0.0000000000000000000, 0.0000000000000000000, 0.0000000000000000000 ) ) ;
#118 = APPLICATION_PROTOCOL_DEFINITION ( 'draft international standard', 'automotive_design', 1998, #254 ) ;
#119 = APPLICATION_CONTEXT ( 'automotive_design' ) ;
#120 = ADVANCED_BREP_SHAPE_REPRESENTATION ( 'Corps du ressort', ( #191, #322 ), #179 ) ;
#121 = CIRCLE ( 'NONE', #289, 4.249999999999994700 ) ;
#122 = AXIS2_PLACEMENT_3D ( 'NONE', #287, #203, #22 ) ;
#123 = LINE ( 'NONE', #114, #337 ) ;
#124 = ORIENTED_EDGE ( 'NONE', *, *, #26, .T. ) ;
#125 = CIRCLE ( 'NONE', #221, 8.500000000000000000 ) ;
#126 = MECHANICAL_DESIGN_GEOMETRIC_PRESENTATION_REPRESENTATION (  '', ( #333 ), #304 ) ;
#127 = CYLINDRICAL_SURFACE ( 'NONE', #341, 4.249999999999992900 ) ;
#128 = ORIENTED_EDGE ( 'NONE', *, *, #16, .F. ) ;
#129 = EDGE_CURVE ( 'NONE', #78, #23, #306, .T. ) ;
#130 = CARTESIAN_POINT ( 'NONE',  ( 4.249999999999990200, 5.204748896376238900E-016, 45.00000000000000000 ) ) ;
#131 = ADVANCED_FACE ( 'NONE', ( #83 ), #331, .F. ) ;
#132 = CIRCLE ( 'NONE', #258, 4.249999999999994700 ) ;
#133 = EDGE_LOOP ( 'NONE', ( #316, #288 ) ) ;
#134 = CARTESIAN_POINT ( 'NONE',  ( 0.0000000000000000000, 0.0000000000000000000, 5.000000000000004400 ) ) ;
#135 = AXIS2_PLACEMENT_3D ( 'NONE', #159, #318, #51 ) ;
#136 = VERTEX_POINT ( 'NONE', #189 ) ;
#137 = DIRECTION ( 'NONE',  ( -0.0000000000000000000, -0.0000000000000000000, -1.000000000000000000 ) ) ;
#138 = DIRECTION ( 'NONE',  ( -1.000000000000000000, 0.0000000000000000000, 0.0000000000000000000 ) ) ;
#139 = SURFACE_STYLE_FILL_AREA ( #308 ) ;
#140 = CARTESIAN_POINT ( 'NONE',  ( -2.000000000000000000, 2.449293598294705900E-016, 5.000000000000004400 ) ) ;
#141 = STYLED_ITEM ( 'NONE', ( #180 ), #120 ) ;
#142 = ORIENTED_EDGE ( 'NONE', *, *, #129, .T. ) ;
#143 =( NAMED_UNIT ( * ) PLANE_ANGLE_UNIT ( ) SI_UNIT ( $, .RADIAN. ) );
#144 = CARTESIAN_POINT ( 'NONE',  ( 0.0000000000000000000, 0.0000000000000000000, 46.35193639281201400 ) ) ;
#145 = ORIENTED_EDGE ( 'NONE', *, *, #277, .T. ) ;
#146 = DIRECTION ( 'NONE',  ( 1.000000000000000000, 0.0000000000000000000, 0.0000000000000000000 ) ) ;
#147 = CARTESIAN_POINT ( 'NONE',  ( -4.249999999999994700, 0.0000000000000000000, -1.408343819019456300E-016 ) ) ;
#148 = DIRECTION ( 'NONE',  ( 1.000000000000000000, 0.0000000000000000000, 0.0000000000000000000 ) ) ;
#149 = CYLINDRICAL_SURFACE ( 'NONE', #89, 8.500000000000000000 ) ;
#150 = AXIS2_PLACEMENT_3D ( 'NONE', #43, #96, #75 ) ;
#151 = VECTOR ( 'NONE', #326, 1000.000000000000000 ) ;
#152 = AXIS2_PLACEMENT_3D ( 'NONE', #85, #166, #193 ) ;
#153 = PRESENTATION_STYLE_ASSIGNMENT (( #171 ) ) ;
#154 = ORIENTED_EDGE ( 'NONE', *, *, #255, .F. ) ;
#155 = ORIENTED_EDGE ( 'NONE', *, *, #183, .T. ) ;
#156 = ADVANCED_FACE ( 'NONE', ( #101 ), #17, .F. ) ;
#157 =( GEOMETRIC_REPRESENTATION_CONTEXT ( 3 ) GLOBAL_UNCERTAINTY_ASSIGNED_CONTEXT ( ( #309 ) ) GLOBAL_UNIT_ASSIGNED_CONTEXT ( ( #67, #242, #91 ) ) REPRESENTATION_CONTEXT ( 'NONE', 'WORKASPACE' ) );
#158 = CARTESIAN_POINT ( 'NONE',  ( 8.500000000000000000, 1.040949779275250100E-015, 0.0000000000000000000 ) ) ;
#159 = CARTESIAN_POINT ( 'NONE',  ( 0.0000000000000000000, 0.0000000000000000000, 50.00000000000000000 ) ) ;
#160 = LINE ( 'NONE', #86, #151 ) ;
#161 = DIRECTION ( 'NONE',  ( 0.0000000000000000000, 0.0000000000000000000, 1.000000000000000000 ) ) ;
#162 = EDGE_CURVE ( 'NONE', #44, #252, #222, .T. ) ;
#163 = EDGE_LOOP ( 'NONE', ( #36, #182, #207, #35 ) ) ;
#164 = ORIENTED_EDGE ( 'NONE', *, *, #325, .F. ) ;
#165 = DIRECTION ( 'NONE',  ( -0.0000000000000000000, -0.0000000000000000000, -1.000000000000000000 ) ) ;
#166 = DIRECTION ( 'NONE',  ( -0.0000000000000000000, -0.0000000000000000000, -1.000000000000000000 ) ) ;
#167 = UNCERTAINTY_MEASURE_WITH_UNIT (LENGTH_MEASURE( 1.000000000000000100E-005 ), #299, 'distance_accuracy_value', 'NONE');
#168 = CARTESIAN_POINT ( 'NONE',  ( 0.0000000000000000000, 0.0000000000000000000, 46.35193639281201400 ) ) ;
#169 = LINE ( 'NONE', #140, #87 ) ;
#170 = DIRECTION ( 'NONE',  ( -0.0000000000000000000, -0.0000000000000000000, -1.000000000000000000 ) ) ;
#171 = SURFACE_STYLE_USAGE ( .BOTH. , #175 ) ;
#172 = AXIS2_PLACEMENT_3D ( 'NONE', #64, #321, #239 ) ;
#173 = CARTESIAN_POINT ( 'NONE',  ( -2.000000000000000000, 2.449293598294705900E-016, 50.00000000000000000 ) ) ;
#174 = CIRCLE ( 'NONE', #315, 8.500000000000000000 ) ;
#175 = SURFACE_SIDE_STYLE ('',( #59 ) ) ;
#176 = ORIENTED_EDGE ( 'NONE', *, *, #277, .F. ) ;
#177 = FACE_OUTER_BOUND ( 'NONE', #234, .T. ) ;
#178 = CLOSED_SHELL ( 'NONE', ( #18, #317, #156, #248, #196, #29, #233, #131, #3, #294 ) ) ;
#179 =( GEOMETRIC_REPRESENTATION_CONTEXT ( 3 ) GLOBAL_UNCERTAINTY_ASSIGNED_CONTEXT ( ( #339 ) ) GLOBAL_UNIT_ASSIGNED_CONTEXT ( ( #47, #73, #286 ) ) REPRESENTATION_CONTEXT ( 'NONE', 'WORKASPACE' ) );
#180 = PRESENTATION_STYLE_ASSIGNMENT (( #226 ) ) ;
#181 = LINE ( 'NONE', #80, #76 ) ;
#182 = ORIENTED_EDGE ( 'NONE', *, *, #16, .T. ) ;
#183 = EDGE_CURVE ( 'NONE', #23, #78, #217, .T. ) ;
#184 = VECTOR ( 'NONE', #220, 1000.000000000000000 ) ;
#185 = VERTEX_POINT ( 'NONE', #278 ) ;
#186 = DIRECTION ( 'NONE',  ( 0.0000000000000000000, 0.0000000000000000000, 1.000000000000000000 ) ) ;
#187 = FILL_AREA_STYLE ('',( #210 ) ) ;
#188 = EDGE_CURVE ( 'NONE', #2, #202, #174, .T. ) ;
#189 = CARTESIAN_POINT ( 'NONE',  ( 8.500000000000000000, 1.040949779275250100E-015, 50.00000000000000000 ) ) ;
#190 = FACE_BOUND ( 'NONE', #257, .T. ) ;
#191 = MANIFOLD_SOLID_BREP ( 'Enlèv. mat.-Extru.2', #178 ) ;
#192 = COLOUR_RGB ( '',0.7921568627450980000, 0.8196078431372548800, 0.9333333333333333500 ) ;
#193 = DIRECTION ( 'NONE',  ( -1.000000000000000000, 0.0000000000000000000, 0.0000000000000000000 ) ) ;
#194 = VECTOR ( 'NONE', #303, 1000.000000000000000 ) ;
#195 = CARTESIAN_POINT ( 'NONE',  ( 0.0000000000000000000, 0.0000000000000000000, 45.00000000000000000 ) ) ;
#196 = ADVANCED_FACE ( 'NONE', ( #279 ), #106, .T. ) ;
#197 = DIRECTION ( 'NONE',  ( 0.0000000000000000000, 0.0000000000000000000, 1.000000000000000000 ) ) ;
#198 = EDGE_CURVE ( 'NONE', #244, #44, #123, .T. ) ;
#199 = CARTESIAN_POINT ( 'NONE',  ( 0.0000000000000000000, 0.0000000000000000000, 50.00000000000000000 ) ) ;
#200 = PRESENTATION_LAYER_ASSIGNMENT (  '', '', ( #141 ) ) ;
#201 = EDGE_LOOP ( 'NONE', ( #343, #267 ) ) ;
#202 = VERTEX_POINT ( 'NONE', #109 ) ;
#203 = DIRECTION ( 'NONE',  ( 0.0000000000000000000, 0.0000000000000000000, 1.000000000000000000 ) ) ;
#204 = ORIENTED_EDGE ( 'NONE', *, *, #246, .T. ) ;
#205 = UNCERTAINTY_MEASURE_WITH_UNIT (LENGTH_MEASURE( 1.000000000000000100E-005 ), #310, 'distance_accuracy_value', 'NONE');
#206 = ORIENTED_EDGE ( 'NONE', *, *, #311, .T. ) ;
#207 = ORIENTED_EDGE ( 'NONE', *, *, #295, .T. ) ;
#208 = LINE ( 'NONE', #215, #262 ) ;
#209 = EDGE_LOOP ( 'NONE', ( #62, #204, #40, #155 ) ) ;
#210 = FILL_AREA_STYLE_COLOUR ( '', #272 ) ;
#211 = STYLED_ITEM ( 'NONE', ( #8 ), #3 ) ;
#212 = SURFACE_SIDE_STYLE ('',( #98 ) ) ;
#213 = VERTEX_POINT ( 'NONE', #274 ) ;
#214 = AXIS2_PLACEMENT_3D ( 'NONE', #69, #300, #146 ) ;
#215 = CARTESIAN_POINT ( 'NONE',  ( -8.500000000000000000, 0.0000000000000000000, 50.00000000000000000 ) ) ;
#216 = COLOUR_RGB ( '',0.7921568627450980000, 0.8196078431372548800, 0.9333333333333333500 ) ;
#217 = CIRCLE ( 'NONE', #284, 4.249999999999990200 ) ;
#218 = ORIENTED_EDGE ( 'NONE', *, *, #225, .T. ) ;
#219 = CARTESIAN_POINT ( 'NONE',  ( 0.0000000000000000000, 0.0000000000000000000, -1.408343819019456300E-016 ) ) ;
#220 = DIRECTION ( 'NONE',  ( 0.8571673007021106700, 1.049727191138616600E-016, -0.5150380749100570400 ) ) ;
#221 = AXIS2_PLACEMENT_3D ( 'NONE', #117, #305, #148 ) ;
#222 = CIRCLE ( 'NONE', #172, 2.000000000000000000 ) ;
#223 = DIRECTION ( 'NONE',  ( 1.000000000000000000, 0.0000000000000000000, -0.0000000000000000000 ) ) ;
#224 = CARTESIAN_POINT ( 'NONE',  ( 0.0000000000000000000, 0.0000000000000000000, -1.408343819019456300E-016 ) ) ;
#225 = EDGE_CURVE ( 'NONE', #244, #78, #48, .T. ) ;
#226 = SURFACE_STYLE_USAGE ( .BOTH. , #336 ) ;
#227 = VERTEX_POINT ( 'NONE', #147 ) ;
#228 = CARTESIAN_POINT ( 'NONE',  ( 0.0000000000000000000, 0.0000000000000000000, 0.0000000000000000000 ) ) ;
#229 = PRESENTATION_LAYER_ASSIGNMENT (  '', '', ( #282 ) ) ;
#230 = EDGE_CURVE ( 'NONE', #213, #244, #256, .T. ) ;
#231 = ORIENTED_EDGE ( 'NONE', *, *, #230, .F. ) ;
#232 = CARTESIAN_POINT ( 'NONE',  ( 2.000000000000000000, 0.0000000000000000000, 50.00000000000000000 ) ) ;
#233 = ADVANCED_FACE ( 'NONE', ( #265, #327 ), #14, .F. ) ;
#234 = EDGE_LOOP ( 'NONE', ( #154, #88, #334, #307 ) ) ;
#235 = DIRECTION ( 'NONE',  ( -0.0000000000000000000, -0.0000000000000000000, 1.000000000000000000 ) ) ;
#236 = EDGE_CURVE ( 'NONE', #136, #2, #243, .T. ) ;
#237 = FACE_OUTER_BOUND ( 'NONE', #163, .T. ) ;
#238 = EDGE_LOOP ( 'NONE', ( #319, #164, #291, #206 ) ) ;
#239 = DIRECTION ( 'NONE',  ( 1.000000000000000000, 0.0000000000000000000, 0.0000000000000000000 ) ) ;
#240 = CARTESIAN_POINT ( 'NONE',  ( 0.0000000000000000000, 0.0000000000000000000, 50.00000000000000000 ) ) ;
#241 =( GEOMETRIC_REPRESENTATION_CONTEXT ( 3 ) GLOBAL_UNCERTAINTY_ASSIGNED_CONTEXT ( ( #205 ) ) GLOBAL_UNIT_ASSIGNED_CONTEXT ( ( #310, #100, #20 ) ) REPRESENTATION_CONTEXT ( 'NONE', 'WORKASPACE' ) );
#242 =( NAMED_UNIT ( * ) PLANE_ANGLE_UNIT ( ) SI_UNIT ( $, .RADIAN. ) );
#243 = LINE ( 'NONE', #41, #194 ) ;
#244 = VERTEX_POINT ( 'NONE', #68 ) ;
#245 = DIRECTION ( 'NONE',  ( -1.000000000000000000, 0.0000000000000000000, 0.0000000000000000000 ) ) ;
#246 = EDGE_CURVE ( 'NONE', #244, #213, #54, .T. ) ;
#247 = DIRECTION ( 'NONE',  ( 0.0000000000000000000, 0.0000000000000000000, 1.000000000000000000 ) ) ;
#248 = ADVANCED_FACE ( 'NONE', ( #177 ), #149, .T. ) ;
#249 = DIRECTION ( 'NONE',  ( -1.000000000000000000, 0.0000000000000000000, 0.0000000000000000000 ) ) ;
#250 = DIRECTION ( 'NONE',  ( 1.000000000000000000, 0.0000000000000000000, 0.0000000000000000000 ) ) ;
#251 = SURFACE_STYLE_FILL_AREA ( #37 ) ;
#252 = VERTEX_POINT ( 'NONE', #173 ) ;
#253 = APPLICATION_PROTOCOL_DEFINITION ( 'draft international standard', 'automotive_design', 1998, #119 ) ;
#254 = APPLICATION_CONTEXT ( 'automotive_design' ) ;
#255 = EDGE_CURVE ( 'NONE', #136, #185, #65, .T. ) ;
#256 = CIRCLE ( 'NONE', #30, 2.000000000000000000 ) ;
#257 = EDGE_LOOP ( 'NONE', ( #328, #66 ) ) ;
#258 = AXIS2_PLACEMENT_3D ( 'NONE', #219, #170, #93 ) ;
#259 = PRODUCT ( 'Corps du ressort', 'Corps du ressort', '', ( #312 ) ) ;
#260 = CIRCLE ( 'NONE', #122, 8.500000000000000000 ) ;
#261 = AXIS2_PLACEMENT_3D ( 'NONE', #271, #108, #138 ) ;
#262 = VECTOR ( 'NONE', #165, 1000.000000000000000 ) ;
#263 = ORIENTED_EDGE ( 'NONE', *, *, #97, .T. ) ;
#264 = CARTESIAN_POINT ( 'NONE',  ( 4.249999999999994700, 5.204748896376245800E-016, -1.408343819019456300E-016 ) ) ;
#265 = FACE_BOUND ( 'NONE', #113, .T. ) ;
#266 = AXIS2_PLACEMENT_3D ( 'NONE', #329, #332, #223 ) ;
#267 = ORIENTED_EDGE ( 'NONE', *, *, #188, .F. ) ;
#268 = CARTESIAN_POINT ( 'NONE',  ( 0.0000000000000000000, 0.0000000000000000000, 0.0000000000000000000 ) ) ;
#269 = PRESENTATION_LAYER_ASSIGNMENT (  '', '', ( #211 ) ) ;
#270 = SHAPE_DEFINITION_REPRESENTATION ( #340, #120 ) ;
#271 = CARTESIAN_POINT ( 'NONE',  ( 0.0000000000000000000, 0.0000000000000000000, 45.00000000000000000 ) ) ;
#272 = COLOUR_RGB ( '',0.7921568627450980000, 0.8196078431372548800, 0.9333333333333333500 ) ;
#273 = ORIENTED_EDGE ( 'NONE', *, *, #198, .F. ) ;
#274 = CARTESIAN_POINT ( 'NONE',  ( -2.000000000000000000, 0.0000000000000000000, 46.35193639281201400 ) ) ;
#275 = PRODUCT_DEFINITION_CONTEXT ( 'detailed design', #119, 'design' ) ;
#276 = CARTESIAN_POINT ( 'NONE',  ( 0.0000000000000000000, 0.0000000000000000000, 45.00000000000000000 ) ) ;
#277 = EDGE_CURVE ( 'NONE', #227, #50, #132, .T. ) ;
#278 = CARTESIAN_POINT ( 'NONE',  ( -8.500000000000000000, 0.0000000000000000000, 50.00000000000000000 ) ) ;
#279 = FACE_OUTER_BOUND ( 'NONE', #238, .T. ) ;
#280 = SURFACE_SIDE_STYLE ('',( #251 ) ) ;
#281 = DIRECTION ( 'NONE',  ( -1.000000000000000000, 0.0000000000000000000, 0.0000000000000000000 ) ) ;
#282 = STYLED_ITEM ( 'NONE', ( #153 ), #317 ) ;
#283 = DIRECTION ( 'NONE',  ( 1.000000000000000000, 0.0000000000000000000, 0.0000000000000000000 ) ) ;
#284 = AXIS2_PLACEMENT_3D ( 'NONE', #195, #12, #38 ) ;
#285 = CYLINDRICAL_SURFACE ( 'NONE', #214, 2.000000000000000000 ) ;
#286 =( NAMED_UNIT ( * ) SI_UNIT ( $, .STERADIAN. ) SOLID_ANGLE_UNIT ( ) );
#287 = CARTESIAN_POINT ( 'NONE',  ( 0.0000000000000000000, 0.0000000000000000000, 50.00000000000000000 ) ) ;
#288 = ORIENTED_EDGE ( 'NONE', *, *, #255, .T. ) ;
#289 = AXIS2_PLACEMENT_3D ( 'NONE', #224, #70, #249 ) ;
#290 =( GEOMETRIC_REPRESENTATION_CONTEXT ( 3 ) GLOBAL_UNCERTAINTY_ASSIGNED_CONTEXT ( ( #57 ) ) GLOBAL_UNIT_ASSIGNED_CONTEXT ( ( #82, #81, #107 ) ) REPRESENTATION_CONTEXT ( 'NONE', 'WORKASPACE' ) );
#291 = ORIENTED_EDGE ( 'NONE', *, *, #32, .T. ) ;
#292 = MECHANICAL_DESIGN_GEOMETRIC_PRESENTATION_REPRESENTATION (  '', ( #211 ), #290 ) ;
#293 = EDGE_LOOP ( 'NONE', ( #298, #313, #338, #11 ) ) ;
#294 = ADVANCED_FACE ( 'NONE', ( #74 ), #285, .F. ) ;
#295 = EDGE_CURVE ( 'NONE', #50, #227, #121, .T. ) ;
#296 = PLANE ( 'NONE',  #135 ) ;
#297 = DIRECTION ( 'NONE',  ( -0.0000000000000000000, -0.0000000000000000000, -1.000000000000000000 ) ) ;
#298 = ORIENTED_EDGE ( 'NONE', *, *, #97, .F. ) ;
#299 =( LENGTH_UNIT ( ) NAMED_UNIT ( * ) SI_UNIT ( .MILLI., .METRE. ) );
#300 = DIRECTION ( 'NONE',  ( -0.0000000000000000000, -0.0000000000000000000, 1.000000000000000000 ) ) ;
#301 = CIRCLE ( 'NONE', #115, 2.000000000000000000 ) ;
#302 = DIRECTION ( 'NONE',  ( -0.0000000000000000000, -0.0000000000000000000, 1.000000000000000000 ) ) ;
#303 = DIRECTION ( 'NONE',  ( -0.0000000000000000000, -0.0000000000000000000, -1.000000000000000000 ) ) ;
#304 =( GEOMETRIC_REPRESENTATION_CONTEXT ( 3 ) GLOBAL_UNCERTAINTY_ASSIGNED_CONTEXT ( ( #167 ) ) GLOBAL_UNIT_ASSIGNED_CONTEXT ( ( #299, #143, #13 ) ) REPRESENTATION_CONTEXT ( 'NONE', 'WORKASPACE' ) );
#305 = DIRECTION ( 'NONE',  ( 0.0000000000000000000, 0.0000000000000000000, 1.000000000000000000 ) ) ;
#306 = CIRCLE ( 'NONE', #261, 4.249999999999990200 ) ;
#307 = ORIENTED_EDGE ( 'NONE', *, *, #32, .F. ) ;
#308 = FILL_AREA_STYLE ('',( #45 ) ) ;
#309 = UNCERTAINTY_MEASURE_WITH_UNIT (LENGTH_MEASURE( 1.000000000000000100E-005 ), #67, 'distance_accuracy_value', 'NONE');
#310 =( LENGTH_UNIT ( ) NAMED_UNIT ( * ) SI_UNIT ( .MILLI., .METRE. ) );
#311 = EDGE_CURVE ( 'NONE', #202, #2, #125, .T. ) ;
#312 = PRODUCT_CONTEXT ( 'NONE', #254, 'mechanical' ) ;
#313 = ORIENTED_EDGE ( 'NONE', *, *, #246, .F. ) ;
#314 = PRESENTATION_LAYER_ASSIGNMENT (  '', '', ( #333 ) ) ;
#315 = AXIS2_PLACEMENT_3D ( 'NONE', #63, #161, #112 ) ;
#316 = ORIENTED_EDGE ( 'NONE', *, *, #325, .T. ) ;
#317 = ADVANCED_FACE ( 'NONE', ( #237 ), #52, .F. ) ;
#318 = DIRECTION ( 'NONE',  ( 0.0000000000000000000, 0.0000000000000000000, 1.000000000000000000 ) ) ;
#319 = ORIENTED_EDGE ( 'NONE', *, *, #236, .F. ) ;
#320 = AXIS2_PLACEMENT_3D ( 'NONE', #276, #297, #9 ) ;
#321 = DIRECTION ( 'NONE',  ( 0.0000000000000000000, 0.0000000000000000000, 1.000000000000000000 ) ) ;
#322 = AXIS2_PLACEMENT_3D ( 'NONE', #228, #46, #250 ) ;
#323 = ORIENTED_EDGE ( 'NONE', *, *, #183, .F. ) ;
#324 = DIRECTION ( 'NONE',  ( -0.0000000000000000000, -0.0000000000000000000, 1.000000000000000000 ) ) ;
#325 = EDGE_CURVE ( 'NONE', #185, #136, #260, .T. ) ;
#326 = DIRECTION ( 'NONE',  ( -0.0000000000000000000, -0.0000000000000000000, -1.000000000000000000 ) ) ;
#327 = FACE_OUTER_BOUND ( 'NONE', #201, .T. ) ;
#328 = ORIENTED_EDGE ( 'NONE', *, *, #162, .F. ) ;
#329 = CARTESIAN_POINT ( 'NONE',  ( 0.0000000000000000000, 0.0000000000000000000, 0.0000000000000000000 ) ) ;
#330 = DIRECTION ( 'NONE',  ( 0.0000000000000000000, 0.0000000000000000000, 1.000000000000000000 ) ) ;
#331 = CONICAL_SURFACE ( 'NONE', #320, 4.249999999999990200, 1.029744258676651200 ) ;
#332 = DIRECTION ( 'NONE',  ( 0.0000000000000000000, 0.0000000000000000000, 1.000000000000000000 ) ) ;
#333 = STYLED_ITEM ( 'NONE', ( #110 ), #191 ) ;
#334 = ORIENTED_EDGE ( 'NONE', *, *, #188, .T. ) ;
#335 = FILL_AREA_STYLE ('',( #39 ) ) ;
#336 = SURFACE_SIDE_STYLE ('',( #139 ) ) ;
#337 = VECTOR ( 'NONE', #302, 1000.000000000000000 ) ;
#338 = ORIENTED_EDGE ( 'NONE', *, *, #198, .T. ) ;
#339 = UNCERTAINTY_MEASURE_WITH_UNIT (LENGTH_MEASURE( 1.000000000000000100E-005 ), #47, 'distance_accuracy_value', 'NONE');
#340 = PRODUCT_DEFINITION_SHAPE ( 'NONE', 'NONE',  #344 ) ;
#341 = AXIS2_PLACEMENT_3D ( 'NONE', #268, #77, #5 ) ;
#342 = EDGE_LOOP ( 'NONE', ( #231, #263, #124, #273 ) ) ;
#343 = ORIENTED_EDGE ( 'NONE', *, *, #311, .F. ) ;
#344 = PRODUCT_DEFINITION ( 'UNKNOWN', '', #42, #275 ) ;
ENDSEC;
END-ISO-10303-21;
