ISO-10303-21;
HEADER;
FILE_DESCRIPTION (( 'STEP AP214' ),
    '1' );
FILE_NAME ('Matrice-Enclume.STEP',
    '2022-02-21T12:55:41',
    ( '' ),
    ( '' ),
    'SwSTEP 2.0',
    'SolidWorks 2021',
    '' );
FILE_SCHEMA (( 'AUTOMOTIVE_DESIGN' ));
ENDSEC;

DATA;
#1 = ORIENTED_EDGE ( 'NONE', *, *, #196, .F. ) ;
#2 = FACE_BOUND ( 'NONE', #239, .T. ) ;
#3 = CONICAL_SURFACE ( 'NONE', #334, 1.999999999999999556, 0.7853981633974562726 ) ;
#4 = AXIS2_PLACEMENT_3D ( 'NONE', #56, #170, #32 ) ;
#5 = DIRECTION ( 'NONE',  ( -0.000000000000000000, -0.000000000000000000, -1.000000000000000000 ) ) ;
#6 = CARTESIAN_POINT ( 'NONE',  ( 0.5000000000000000000, 0.000000000000000000, -1.414213562373090038 ) ) ;
#7 = CARTESIAN_POINT ( 'NONE',  ( -0.5000000000000000000, 6.123233995736764803E-17, 0.000000000000000000 ) ) ;
#8 = CLOSED_SHELL ( 'NONE', ( #309, #96, #12, #246, #191, #73, #90, #210, #281, #146, #151 ) ) ;
#9 = FACE_OUTER_BOUND ( 'NONE', #134, .T. ) ;
#10 = DIRECTION ( 'NONE',  ( 1.000000000000000000, 0.000000000000000000, 0.000000000000000000 ) ) ;
#11 = SURFACE_SIDE_STYLE ('',( #98 ) ) ;
#12 = ADVANCED_FACE ( 'NONE', ( #111 ), #270, .T. ) ;
#13 = DIRECTION ( 'NONE',  ( 0.000000000000000000, 0.000000000000000000, 1.000000000000000000 ) ) ;
#14 = CARTESIAN_POINT ( 'NONE',  ( 0.000000000000000000, 0.000000000000000000, 25.00000000000000000 ) ) ;
#15 = CIRCLE ( 'NONE', #198, 0.5000000000000000000 ) ;
#16 = DIRECTION ( 'NONE',  ( -1.000000000000000000, 0.000000000000000000, 0.000000000000000000 ) ) ;
#17 = LINE ( 'NONE', #130, #289 ) ;
#18 = DIRECTION ( 'NONE',  ( -0.000000000000000000, -0.000000000000000000, -1.000000000000000000 ) ) ;
#19 = SHAPE_DEFINITION_REPRESENTATION ( #343, #106 ) ;
#20 = CIRCLE ( 'NONE', #259, 0.5000000000000000000 ) ;
#21 = ORIENTED_EDGE ( 'NONE', *, *, #105, .T. ) ;
#22 = SURFACE_SIDE_STYLE ('',( #287 ) ) ;
#23 = VERTEX_POINT ( 'NONE', #7 ) ;
#24 = CARTESIAN_POINT ( 'NONE',  ( -1.999999999999999556, 0.000000000000000000, 25.00000000000000000 ) ) ;
#25 = VERTEX_POINT ( 'NONE', #148 ) ;
#26 = FILL_AREA_STYLE ('',( #261 ) ) ;
#27 = PRODUCT_DEFINITION_CONTEXT ( 'detailed design', #193, 'design' ) ;
#28 = CIRCLE ( 'NONE', #138, 1.699999999999996625 ) ;
#29 = ORIENTED_EDGE ( 'NONE', *, *, #206, .T. ) ;
#30 = STYLED_ITEM ( 'NONE', ( #160 ), #106 ) ;
#31 = CARTESIAN_POINT ( 'NONE',  ( 0.000000000000000000, 0.000000000000000000, 0.000000000000000000 ) ) ;
#32 = DIRECTION ( 'NONE',  ( 1.000000000000000000, 0.000000000000000000, 0.000000000000000000 ) ) ;
#33 = EDGE_CURVE ( 'NONE', #234, #25, #15, .T. ) ;
#34 = CARTESIAN_POINT ( 'NONE',  ( 0.000000000000000000, 0.000000000000000000, 40.00000000000000000 ) ) ;
#35 = DIRECTION ( 'NONE',  ( 1.000000000000000000, 0.000000000000000000, 0.000000000000000000 ) ) ;
#36 = ORIENTED_EDGE ( 'NONE', *, *, #242, .F. ) ;
#37 = CIRCLE ( 'NONE', #87, 1.500000000000000222 ) ;
#38 = PRODUCT_RELATED_PRODUCT_CATEGORY ( 'part', '', ( #314 ) ) ;
#39 = LINE ( 'NONE', #201, #159 ) ;
#40 =( NAMED_UNIT ( * ) PLANE_ANGLE_UNIT ( ) SI_UNIT ( $, .RADIAN. ) );
#41 = EDGE_CURVE ( 'NONE', #212, #53, #28, .T. ) ;
#42 = DIRECTION ( 'NONE',  ( -1.000000000000000000, 0.000000000000000000, 0.000000000000000000 ) ) ;
#43 = AXIS2_PLACEMENT_3D ( 'NONE', #333, #68, #204 ) ;
#44 = CARTESIAN_POINT ( 'NONE',  ( 0.000000000000000000, 0.000000000000000000, 25.00000000000000000 ) ) ;
#45 = CARTESIAN_POINT ( 'NONE',  ( 0.000000000000000000, 0.000000000000000000, 0.2999999999999981570 ) ) ;
#46 = ORIENTED_EDGE ( 'NONE', *, *, #55, .T. ) ;
#47 = VECTOR ( 'NONE', #132, 1000.000000000000000 ) ;
#48 = ORIENTED_EDGE ( 'NONE', *, *, #276, .F. ) ;
#49 = SURFACE_STYLE_USAGE ( .BOTH. , #22 ) ;
#50 = ORIENTED_EDGE ( 'NONE', *, *, #105, .F. ) ;
#51 = EDGE_LOOP ( 'NONE', ( #103, #104 ) ) ;
#52 = EDGE_CURVE ( 'NONE', #311, #286, #145, .T. ) ;
#53 = VERTEX_POINT ( 'NONE', #244 ) ;
#54 = CARTESIAN_POINT ( 'NONE',  ( 1.500000000000000222, 1.836970198721030181E-16, 25.00000000000000000 ) ) ;
#55 = EDGE_CURVE ( 'NONE', #60, #286, #126, .T. ) ;
#56 = CARTESIAN_POINT ( 'NONE',  ( 0.000000000000000000, 0.000000000000000000, 0.000000000000000000 ) ) ;
#57 = DIRECTION ( 'NONE',  ( -0.000000000000000000, -0.000000000000000000, 1.000000000000000000 ) ) ;
#58 = PRESENTATION_LAYER_ASSIGNMENT (  '', '', ( #320 ) ) ;
#59 = CARTESIAN_POINT ( 'NONE',  ( 0.5000000000000000000, 0.000000000000000000, 0.000000000000000000 ) ) ;
#60 = VERTEX_POINT ( 'NONE', #169 ) ;
#61 = CARTESIAN_POINT ( 'NONE',  ( 0.000000000000000000, 0.000000000000000000, 40.00000000000000000 ) ) ;
#62 = APPLICATION_CONTEXT ( 'automotive_design' ) ;
#63 = CARTESIAN_POINT ( 'NONE',  ( 1.999999999999999556, 2.449293598294705921E-16, 0.2999999999999981570 ) ) ;
#64 = DIRECTION ( 'NONE',  ( -0.000000000000000000, -0.000000000000000000, -1.000000000000000000 ) ) ;
#65 = CARTESIAN_POINT ( 'NONE',  ( 0.5000000000000000000, 0.000000000000000000, 40.00000000000000000 ) ) ;
#66 = DIRECTION ( 'NONE',  ( -0.000000000000000000, -0.000000000000000000, -1.000000000000000000 ) ) ;
#67 = DIRECTION ( 'NONE',  ( -0.000000000000000000, -0.000000000000000000, 1.000000000000000000 ) ) ;
#68 = DIRECTION ( 'NONE',  ( 0.000000000000000000, 0.000000000000000000, 1.000000000000000000 ) ) ;
#69 = VECTOR ( 'NONE', #194, 1000.000000000000000 ) ;
#70 = CYLINDRICAL_SURFACE ( 'NONE', #113, 1.999999999999999556 ) ;
#71 = ORIENTED_EDGE ( 'NONE', *, *, #115, .F. ) ;
#72 =( LENGTH_UNIT ( ) NAMED_UNIT ( * ) SI_UNIT ( .MILLI., .METRE. ) );
#73 = ADVANCED_FACE ( 'NONE', ( #2, #195 ), #85, .T. ) ;
#74 = EDGE_LOOP ( 'NONE', ( #135, #71, #220, #240 ) ) ;
#75 =( NAMED_UNIT ( * ) PLANE_ANGLE_UNIT ( ) SI_UNIT ( $, .RADIAN. ) );
#76 = CIRCLE ( 'NONE', #143, 1.699999999999996625 ) ;
#77 = EDGE_LOOP ( 'NONE', ( #36, #336, #158, #48 ) ) ;
#78 = LINE ( 'NONE', #24, #47 ) ;
#79 = VERTEX_POINT ( 'NONE', #271 ) ;
#80 = VERTEX_POINT ( 'NONE', #54 ) ;
#81 = AXIS2_PLACEMENT_3D ( 'NONE', #165, #344, #238 ) ;
#82 = AXIS2_PLACEMENT_3D ( 'NONE', #44, #100, #10 ) ;
#83 = CARTESIAN_POINT ( 'NONE',  ( 1.999999999999999556, 2.449293598294705921E-16, 25.00000000000000000 ) ) ;
#84 = VERTEX_POINT ( 'NONE', #59 ) ;
#85 = PLANE ( 'NONE',  #272 ) ;
#86 = DIRECTION ( 'NONE',  ( 1.000000000000000000, 0.000000000000000000, -0.000000000000000000 ) ) ;
#87 = AXIS2_PLACEMENT_3D ( 'NONE', #61, #277, #332 ) ;
#88 = CIRCLE ( 'NONE', #305, 1.999999999999999556 ) ;
#89 = DIRECTION ( 'NONE',  ( 0.000000000000000000, 0.000000000000000000, 1.000000000000000000 ) ) ;
#90 = ADVANCED_FACE ( 'NONE', ( #114, #267 ), #219, .F. ) ;
#91 = DIRECTION ( 'NONE',  ( 1.000000000000000000, 0.000000000000000000, 0.000000000000000000 ) ) ;
#92 = CARTESIAN_POINT ( 'NONE',  ( 1.999999999999999556, 2.449293598294705921E-16, 25.00000000000000000 ) ) ;
#93 = CYLINDRICAL_SURFACE ( 'NONE', #310, 0.5000000000000000000 ) ;
#94 = CIRCLE ( 'NONE', #4, 0.5000000000000000000 ) ;
#95 = DIRECTION ( 'NONE',  ( -0.000000000000000000, -0.000000000000000000, -1.000000000000000000 ) ) ;
#96 = ADVANCED_FACE ( 'NONE', ( #292 ), #133, .T. ) ;
#97 = CARTESIAN_POINT ( 'NONE',  ( 0.000000000000000000, 0.000000000000000000, 0.000000000000000000 ) ) ;
#98 = SURFACE_STYLE_FILL_AREA ( #99 ) ;
#99 = FILL_AREA_STYLE ('',( #154 ) ) ;
#100 = DIRECTION ( 'NONE',  ( 0.000000000000000000, 0.000000000000000000, 1.000000000000000000 ) ) ;
#101 = AXIS2_PLACEMENT_3D ( 'NONE', #31, #142, #86 ) ;
#102 = ORIENTED_EDGE ( 'NONE', *, *, #291, .T. ) ;
#103 = ORIENTED_EDGE ( 'NONE', *, *, #115, .T. ) ;
#104 = ORIENTED_EDGE ( 'NONE', *, *, #41, .T. ) ;
#105 = EDGE_CURVE ( 'NONE', #84, #23, #94, .T. ) ;
#106 = ADVANCED_BREP_SHAPE_REPRESENTATION ( 'Matrice-Enclume', ( #175, #81 ), #329 ) ;
#107 = AXIS2_PLACEMENT_3D ( 'NONE', #97, #66, #299 ) ;
#108 = EDGE_LOOP ( 'NONE', ( #167, #235 ) ) ;
#109 = ORIENTED_EDGE ( 'NONE', *, *, #185, .F. ) ;
#110 = DIRECTION ( 'NONE',  ( 1.000000000000000000, 0.000000000000000000, 0.000000000000000000 ) ) ;
#111 = FACE_OUTER_BOUND ( 'NONE', #77, .T. ) ;
#112 = UNCERTAINTY_MEASURE_WITH_UNIT (LENGTH_MEASURE( 1.000000000000000082E-05 ), #249, 'distance_accuracy_value', 'NONE');
#113 = AXIS2_PLACEMENT_3D ( 'NONE', #327, #18, #228 ) ;
#114 = FACE_BOUND ( 'NONE', #215, .T. ) ;
#115 = EDGE_CURVE ( 'NONE', #53, #212, #76, .T. ) ;
#116 = DIRECTION ( 'NONE',  ( 1.000000000000000000, 0.000000000000000000, 0.000000000000000000 ) ) ;
#117 = EDGE_LOOP ( 'NONE', ( #173, #141, #209, #46 ) ) ;
#118 = EDGE_LOOP ( 'NONE', ( #190, #264, #266, #288 ) ) ;
#119 = AXIS2_PLACEMENT_3D ( 'NONE', #34, #268, #245 ) ;
#120 = AXIS2_PLACEMENT_3D ( 'NONE', #122, #226, #324 ) ;
#121 = CARTESIAN_POINT ( 'NONE',  ( -1.999999999999999556, 2.449293598294705921E-16, 0.2999999999999981570 ) ) ;
#122 = CARTESIAN_POINT ( 'NONE',  ( 0.000000000000000000, 0.000000000000000000, -1.414213562373090038 ) ) ;
#123 = CARTESIAN_POINT ( 'NONE',  ( 0.000000000000000000, 0.000000000000000000, 40.00000000000000000 ) ) ;
#124 = EDGE_CURVE ( 'NONE', #84, #234, #197, .T. ) ;
#125 = DIRECTION ( 'NONE',  ( 1.000000000000000000, 0.000000000000000000, 0.000000000000000000 ) ) ;
#126 = CIRCLE ( 'NONE', #182, 1.999999999999999556 ) ;
#127 = CARTESIAN_POINT ( 'NONE',  ( -1.699999999999996625, 2.265596578422601128E-16, 0.000000000000000000 ) ) ;
#128 = DIRECTION ( 'NONE',  ( 0.000000000000000000, 0.000000000000000000, 1.000000000000000000 ) ) ;
#129 = LINE ( 'NONE', #121, #218 ) ;
#130 = CARTESIAN_POINT ( 'NONE',  ( -1.500000000000000222, 0.000000000000000000, 40.00000000000000000 ) ) ;
#131 = EDGE_CURVE ( 'NONE', #260, #80, #298, .T. ) ;
#132 = DIRECTION ( 'NONE',  ( -0.000000000000000000, -0.000000000000000000, -1.000000000000000000 ) ) ;
#133 = CONICAL_SURFACE ( 'NONE', #213, 1.999999999999999556, 0.7853981633974562726 ) ;
#134 = EDGE_LOOP ( 'NONE', ( #189, #283, #338, #166 ) ) ;
#135 = ORIENTED_EDGE ( 'NONE', *, *, #225, .F. ) ;
#136 = ORIENTED_EDGE ( 'NONE', *, *, #225, .T. ) ;
#137 =( NAMED_UNIT ( * ) SI_UNIT ( $, .STERADIAN. ) SOLID_ANGLE_UNIT ( ) );
#138 = AXIS2_PLACEMENT_3D ( 'NONE', #295, #319, #241 ) ;
#139 = EDGE_LOOP ( 'NONE', ( #21, #188, #223, #216 ) ) ;
#140 = UNCERTAINTY_MEASURE_WITH_UNIT (LENGTH_MEASURE( 1.000000000000000082E-05 ), #187, 'distance_accuracy_value', 'NONE');
#141 = ORIENTED_EDGE ( 'NONE', *, *, #318, .F. ) ;
#142 = DIRECTION ( 'NONE',  ( 0.000000000000000000, 0.000000000000000000, 1.000000000000000000 ) ) ;
#143 = AXIS2_PLACEMENT_3D ( 'NONE', #144, #5, #147 ) ;
#144 = CARTESIAN_POINT ( 'NONE',  ( 0.000000000000000000, 0.000000000000000000, 0.000000000000000000 ) ) ;
#145 = LINE ( 'NONE', #83, #69 ) ;
#146 = ADVANCED_FACE ( 'NONE', ( #229 ), #3, .T. ) ;
#147 = DIRECTION ( 'NONE',  ( 1.000000000000000000, 0.000000000000000000, 0.000000000000000000 ) ) ;
#148 = CARTESIAN_POINT ( 'NONE',  ( -0.5000000000000000000, 6.123233995736764803E-17, 40.00000000000000000 ) ) ;
#149 = AXIS2_PLACEMENT_3D ( 'NONE', #306, #302, #42 ) ;
#150 = CARTESIAN_POINT ( 'NONE',  ( -1.500000000000000222, 0.000000000000000000, 25.00000000000000000 ) ) ;
#151 = ADVANCED_FACE ( 'NONE', ( #330 ), #93, .F. ) ;
#152 = DIRECTION ( 'NONE',  ( 1.000000000000000000, 0.000000000000000000, 0.000000000000000000 ) ) ;
#153 = SURFACE_STYLE_USAGE ( .BOTH. , #11 ) ;
#154 = FILL_AREA_STYLE_COLOUR ( '', #203 ) ;
#155 = CIRCLE ( 'NONE', #339, 1.500000000000000222 ) ;
#156 = DIRECTION ( 'NONE',  ( -0.000000000000000000, -0.000000000000000000, -1.000000000000000000 ) ) ;
#157 = EDGE_CURVE ( 'NONE', #340, #80, #39, .T. ) ;
#158 = ORIENTED_EDGE ( 'NONE', *, *, #196, .T. ) ;
#159 = VECTOR ( 'NONE', #64, 1000.000000000000000 ) ;
#160 = PRESENTATION_STYLE_ASSIGNMENT (( #49 ) ) ;
#161 = VECTOR ( 'NONE', #202, 1000.000000000000000 ) ;
#162 = EDGE_CURVE ( 'NONE', #79, #340, #37, .T. ) ;
#163 = EDGE_LOOP ( 'NONE', ( #186, #136, #342, #282 ) ) ;
#164 = EDGE_LOOP ( 'NONE', ( #200, #102 ) ) ;
#165 = CARTESIAN_POINT ( 'NONE',  ( 0.000000000000000000, 0.000000000000000000, 0.000000000000000000 ) ) ;
#166 = ORIENTED_EDGE ( 'NONE', *, *, #131, .T. ) ;
#167 = ORIENTED_EDGE ( 'NONE', *, *, #162, .T. ) ;
#168 = EDGE_CURVE ( 'NONE', #286, #60, #315, .T. ) ;
#169 = CARTESIAN_POINT ( 'NONE',  ( -1.999999999999999556, 0.000000000000000000, 0.2999999999999981570 ) ) ;
#170 = DIRECTION ( 'NONE',  ( -0.000000000000000000, -0.000000000000000000, -1.000000000000000000 ) ) ;
#171 = CIRCLE ( 'NONE', #255, 1.500000000000000222 ) ;
#172 = CARTESIAN_POINT ( 'NONE',  ( 0.000000000000000000, 0.000000000000000000, 25.00000000000000000 ) ) ;
#173 = ORIENTED_EDGE ( 'NONE', *, *, #52, .F. ) ;
#174 = DIRECTION ( 'NONE',  ( 1.000000000000000000, 0.000000000000000000, 0.000000000000000000 ) ) ;
#175 = MANIFOLD_SOLID_BREP ( 'Enlèv. mat.-Extru.1', #8 ) ;
#176 = CARTESIAN_POINT ( 'NONE',  ( 0.000000000000000000, 0.000000000000000000, -1.414213562373090038 ) ) ;
#177 = DIRECTION ( 'NONE',  ( -0.000000000000000000, -0.000000000000000000, 1.000000000000000000 ) ) ;
#178 = FACE_OUTER_BOUND ( 'NONE', #108, .T. ) ;
#179 = LINE ( 'NONE', #248, #192 ) ;
#180 = DIRECTION ( 'NONE',  ( -0.000000000000000000, -0.000000000000000000, 1.000000000000000000 ) ) ;
#181 = EDGE_CURVE ( 'NONE', #25, #234, #20, .T. ) ;
#182 = AXIS2_PLACEMENT_3D ( 'NONE', #316, #290, #116 ) ;
#183 = PRODUCT_CONTEXT ( 'NONE', #62, 'mechanical' ) ;
#184 = ORIENTED_EDGE ( 'NONE', *, *, #131, .F. ) ;
#185 = EDGE_CURVE ( 'NONE', #23, #25, #205, .T. ) ;
#186 = ORIENTED_EDGE ( 'NONE', *, *, #41, .F. ) ;
#187 =( LENGTH_UNIT ( ) NAMED_UNIT ( * ) SI_UNIT ( .MILLI., .METRE. ) );
#188 = ORIENTED_EDGE ( 'NONE', *, *, #185, .T. ) ;
#189 = ORIENTED_EDGE ( 'NONE', *, *, #157, .F. ) ;
#190 = ORIENTED_EDGE ( 'NONE', *, *, #291, .F. ) ;
#191 = ADVANCED_FACE ( 'NONE', ( #207 ), #70, .T. ) ;
#192 = VECTOR ( 'NONE', #256, 1000.000000000000000 ) ;
#193 = APPLICATION_CONTEXT ( 'automotive_design' ) ;
#194 = DIRECTION ( 'NONE',  ( -0.000000000000000000, -0.000000000000000000, -1.000000000000000000 ) ) ;
#195 = FACE_OUTER_BOUND ( 'NONE', #164, .T. ) ;
#196 = EDGE_CURVE ( 'NONE', #80, #260, #171, .T. ) ;
#197 = LINE ( 'NONE', #6, #208 ) ;
#198 = AXIS2_PLACEMENT_3D ( 'NONE', #296, #321, #174 ) ;
#199 = DIRECTION ( 'NONE',  ( -0.000000000000000000, -0.000000000000000000, 1.000000000000000000 ) ) ;
#200 = ORIENTED_EDGE ( 'NONE', *, *, #318, .T. ) ;
#201 = CARTESIAN_POINT ( 'NONE',  ( 1.500000000000000222, 1.836970198721030181E-16, 40.00000000000000000 ) ) ;
#202 = DIRECTION ( 'NONE',  ( -0.000000000000000000, -0.000000000000000000, 1.000000000000000000 ) ) ;
#203 = COLOUR_RGB ( '',0.7921568627450980005, 0.8196078431372548767, 0.9333333333333333481 ) ;
#204 = DIRECTION ( 'NONE',  ( 1.000000000000000000, 0.000000000000000000, -0.000000000000000000 ) ) ;
#205 = LINE ( 'NONE', #325, #161 ) ;
#206 = EDGE_CURVE ( 'NONE', #23, #84, #304, .T. ) ;
#207 = FACE_OUTER_BOUND ( 'NONE', #117, .T. ) ;
#208 = VECTOR ( 'NONE', #57, 1000.000000000000000 ) ;
#209 = ORIENTED_EDGE ( 'NONE', *, *, #337, .T. ) ;
#210 = ADVANCED_FACE ( 'NONE', ( #9 ), #323, .T. ) ;
#211 = VERTEX_POINT ( 'NONE', #257 ) ;
#212 = VERTEX_POINT ( 'NONE', #127 ) ;
#213 = AXIS2_PLACEMENT_3D ( 'NONE', #317, #199, #35 ) ;
#214 =( NAMED_UNIT ( * ) SI_UNIT ( $, .STERADIAN. ) SOLID_ANGLE_UNIT ( ) );
#215 = EDGE_LOOP ( 'NONE', ( #50, #307 ) ) ;
#216 = ORIENTED_EDGE ( 'NONE', *, *, #124, .F. ) ;
#217 = DIRECTION ( 'NONE',  ( 1.000000000000000000, 0.000000000000000000, -0.000000000000000000 ) ) ;
#218 = VECTOR ( 'NONE', #224, 1000.000000000000000 ) ;
#219 = PLANE ( 'NONE',  #101 ) ;
#220 = ORIENTED_EDGE ( 'NONE', *, *, #263, .T. ) ;
#221 = PRODUCT_DEFINITION_FORMATION_WITH_SPECIFIED_SOURCE ( 'ANY', '', #314, .NOT_KNOWN. ) ;
#222 = MECHANICAL_DESIGN_GEOMETRIC_PRESENTATION_REPRESENTATION (  '', ( #320 ), #265 ) ;
#223 = ORIENTED_EDGE ( 'NONE', *, *, #181, .T. ) ;
#224 = DIRECTION ( 'NONE',  ( -0.7071067811865531239, 8.659560562355001884E-17, 0.7071067811865419106 ) ) ;
#225 = EDGE_CURVE ( 'NONE', #212, #60, #129, .T. ) ;
#226 = DIRECTION ( 'NONE',  ( -0.000000000000000000, -0.000000000000000000, 1.000000000000000000 ) ) ;
#227 = DIRECTION ( 'NONE',  ( 0.000000000000000000, 0.000000000000000000, 1.000000000000000000 ) ) ;
#228 = DIRECTION ( 'NONE',  ( -1.000000000000000000, 0.000000000000000000, 0.000000000000000000 ) ) ;
#229 = FACE_OUTER_BOUND ( 'NONE', #74, .T. ) ;
#230 = CARTESIAN_POINT ( 'NONE',  ( 0.000000000000000000, 0.000000000000000000, 0.2999999999999981570 ) ) ;
#231 = FACE_BOUND ( 'NONE', #243, .T. ) ;
#232 =( GEOMETRIC_REPRESENTATION_CONTEXT ( 3 ) GLOBAL_UNCERTAINTY_ASSIGNED_CONTEXT ( ( #140 ) ) GLOBAL_UNIT_ASSIGNED_CONTEXT ( ( #187, #284, #137 ) ) REPRESENTATION_CONTEXT ( 'NONE', 'WORKASPACE' ) );
#233 = CIRCLE ( 'NONE', #82, 1.999999999999999556 ) ;
#234 = VERTEX_POINT ( 'NONE', #65 ) ;
#235 = ORIENTED_EDGE ( 'NONE', *, *, #242, .T. ) ;
#236 = ORIENTED_EDGE ( 'NONE', *, *, #181, .F. ) ;
#237 = AXIS2_PLACEMENT_3D ( 'NONE', #172, #269, #303 ) ;
#238 = DIRECTION ( 'NONE',  ( 1.000000000000000000, 0.000000000000000000, 0.000000000000000000 ) ) ;
#239 = EDGE_LOOP ( 'NONE', ( #184, #1 ) ) ;
#240 = ORIENTED_EDGE ( 'NONE', *, *, #55, .F. ) ;
#241 = DIRECTION ( 'NONE',  ( 1.000000000000000000, 0.000000000000000000, 0.000000000000000000 ) ) ;
#242 = EDGE_CURVE ( 'NONE', #340, #79, #155, .T. ) ;
#243 = EDGE_LOOP ( 'NONE', ( #313, #236 ) ) ;
#244 = CARTESIAN_POINT ( 'NONE',  ( 1.699999999999996625, 0.000000000000000000, 0.000000000000000000 ) ) ;
#245 = DIRECTION ( 'NONE',  ( -1.000000000000000000, 0.000000000000000000, 0.000000000000000000 ) ) ;
#246 = ADVANCED_FACE ( 'NONE', ( #253 ), #331, .T. ) ;
#247 = DIRECTION ( 'NONE',  ( 1.000000000000000000, 0.000000000000000000, 0.000000000000000000 ) ) ;
#248 = CARTESIAN_POINT ( 'NONE',  ( 1.999999999999999556, 0.000000000000000000, 0.2999999999999981570 ) ) ;
#249 =( LENGTH_UNIT ( ) NAMED_UNIT ( * ) SI_UNIT ( .MILLI., .METRE. ) );
#250 = CYLINDRICAL_SURFACE ( 'NONE', #120, 0.5000000000000000000 ) ;
#251 = PRESENTATION_STYLE_ASSIGNMENT (( #153 ) ) ;
#252 = PRODUCT_DEFINITION ( 'UNKNOWN', '', #221, #27 ) ;
#253 = FACE_OUTER_BOUND ( 'NONE', #118, .T. ) ;
#254 = CARTESIAN_POINT ( 'NONE',  ( 0.000000000000000000, 0.000000000000000000, 40.00000000000000000 ) ) ;
#255 = AXIS2_PLACEMENT_3D ( 'NONE', #280, #301, #247 ) ;
#256 = DIRECTION ( 'NONE',  ( 0.7071067811865531239, 0.000000000000000000, 0.7071067811865419106 ) ) ;
#257 = CARTESIAN_POINT ( 'NONE',  ( -1.999999999999999556, 0.000000000000000000, 25.00000000000000000 ) ) ;
#258 = ORIENTED_EDGE ( 'NONE', *, *, #33, .T. ) ;
#259 = AXIS2_PLACEMENT_3D ( 'NONE', #123, #227, #152 ) ;
#260 = VERTEX_POINT ( 'NONE', #150 ) ;
#261 = FILL_AREA_STYLE_COLOUR ( '', #322 ) ;
#262 = UNCERTAINTY_MEASURE_WITH_UNIT (LENGTH_MEASURE( 1.000000000000000082E-05 ), #72, 'distance_accuracy_value', 'NONE');
#263 = EDGE_CURVE ( 'NONE', #53, #286, #179, .T. ) ;
#264 = ORIENTED_EDGE ( 'NONE', *, *, #52, .T. ) ;
#265 =( GEOMETRIC_REPRESENTATION_CONTEXT ( 3 ) GLOBAL_UNCERTAINTY_ASSIGNED_CONTEXT ( ( #112 ) ) GLOBAL_UNIT_ASSIGNED_CONTEXT ( ( #249, #40, #274 ) ) REPRESENTATION_CONTEXT ( 'NONE', 'WORKASPACE' ) );
#266 = ORIENTED_EDGE ( 'NONE', *, *, #168, .T. ) ;
#267 = FACE_OUTER_BOUND ( 'NONE', #51, .T. ) ;
#268 = DIRECTION ( 'NONE',  ( -0.000000000000000000, -0.000000000000000000, -1.000000000000000000 ) ) ;
#269 = DIRECTION ( 'NONE',  ( 0.000000000000000000, 0.000000000000000000, 1.000000000000000000 ) ) ;
#270 = CYLINDRICAL_SURFACE ( 'NONE', #119, 1.500000000000000222 ) ;
#271 = CARTESIAN_POINT ( 'NONE',  ( -1.500000000000000222, 0.000000000000000000, 40.00000000000000000 ) ) ;
#272 = AXIS2_PLACEMENT_3D ( 'NONE', #293, #89, #217 ) ;
#273 = PRESENTATION_LAYER_ASSIGNMENT (  '', '', ( #30 ) ) ;
#274 =( NAMED_UNIT ( * ) SI_UNIT ( $, .STERADIAN. ) SOLID_ANGLE_UNIT ( ) );
#275 = FACE_OUTER_BOUND ( 'NONE', #139, .T. ) ;
#276 = EDGE_CURVE ( 'NONE', #79, #260, #17, .T. ) ;
#277 = DIRECTION ( 'NONE',  ( 0.000000000000000000, 0.000000000000000000, 1.000000000000000000 ) ) ;
#278 = PLANE ( 'NONE',  #43 ) ;
#279 = DIRECTION ( 'NONE',  ( 1.000000000000000000, 0.000000000000000000, 0.000000000000000000 ) ) ;
#280 = CARTESIAN_POINT ( 'NONE',  ( 0.000000000000000000, 0.000000000000000000, 25.00000000000000000 ) ) ;
#281 = ADVANCED_FACE ( 'NONE', ( #231, #178 ), #278, .T. ) ;
#282 = ORIENTED_EDGE ( 'NONE', *, *, #263, .F. ) ;
#283 = ORIENTED_EDGE ( 'NONE', *, *, #162, .F. ) ;
#284 =( NAMED_UNIT ( * ) PLANE_ANGLE_UNIT ( ) SI_UNIT ( $, .RADIAN. ) );
#285 = ORIENTED_EDGE ( 'NONE', *, *, #124, .T. ) ;
#286 = VERTEX_POINT ( 'NONE', #63 ) ;
#287 = SURFACE_STYLE_FILL_AREA ( #26 ) ;
#288 = ORIENTED_EDGE ( 'NONE', *, *, #337, .F. ) ;
#289 = VECTOR ( 'NONE', #95, 1000.000000000000000 ) ;
#290 = DIRECTION ( 'NONE',  ( -0.000000000000000000, -0.000000000000000000, 1.000000000000000000 ) ) ;
#291 = EDGE_CURVE ( 'NONE', #311, #211, #233, .T. ) ;
#292 = FACE_OUTER_BOUND ( 'NONE', #163, .T. ) ;
#293 = CARTESIAN_POINT ( 'NONE',  ( 0.000000000000000000, 0.000000000000000000, 25.00000000000000000 ) ) ;
#294 = AXIS2_PLACEMENT_3D ( 'NONE', #254, #156, #16 ) ;
#295 = CARTESIAN_POINT ( 'NONE',  ( 0.000000000000000000, 0.000000000000000000, 0.000000000000000000 ) ) ;
#296 = CARTESIAN_POINT ( 'NONE',  ( 0.000000000000000000, 0.000000000000000000, 40.00000000000000000 ) ) ;
#297 = MECHANICAL_DESIGN_GEOMETRIC_PRESENTATION_REPRESENTATION (  '', ( #30 ), #232 ) ;
#298 = CIRCLE ( 'NONE', #237, 1.500000000000000222 ) ;
#299 = DIRECTION ( 'NONE',  ( 1.000000000000000000, 0.000000000000000000, 0.000000000000000000 ) ) ;
#300 = DIRECTION ( 'NONE',  ( 1.000000000000000000, 0.000000000000000000, 0.000000000000000000 ) ) ;
#301 = DIRECTION ( 'NONE',  ( 0.000000000000000000, 0.000000000000000000, 1.000000000000000000 ) ) ;
#302 = DIRECTION ( 'NONE',  ( -0.000000000000000000, -0.000000000000000000, -1.000000000000000000 ) ) ;
#303 = DIRECTION ( 'NONE',  ( 1.000000000000000000, 0.000000000000000000, 0.000000000000000000 ) ) ;
#304 = CIRCLE ( 'NONE', #107, 0.5000000000000000000 ) ;
#305 = AXIS2_PLACEMENT_3D ( 'NONE', #14, #13, #110 ) ;
#306 = CARTESIAN_POINT ( 'NONE',  ( 0.000000000000000000, 0.000000000000000000, 25.00000000000000000 ) ) ;
#307 = ORIENTED_EDGE ( 'NONE', *, *, #206, .F. ) ;
#308 = EDGE_LOOP ( 'NONE', ( #109, #29, #285, #258 ) ) ;
#309 = ADVANCED_FACE ( 'NONE', ( #275 ), #250, .F. ) ;
#310 = AXIS2_PLACEMENT_3D ( 'NONE', #176, #180, #279 ) ;
#311 = VERTEX_POINT ( 'NONE', #92 ) ;
#312 = APPLICATION_PROTOCOL_DEFINITION ( 'draft international standard', 'automotive_design', 1998, #193 ) ;
#313 = ORIENTED_EDGE ( 'NONE', *, *, #33, .F. ) ;
#314 = PRODUCT ( 'Matrice-Enclume', 'Matrice-Enclume', '', ( #183 ) ) ;
#315 = CIRCLE ( 'NONE', #326, 1.999999999999999556 ) ;
#316 = CARTESIAN_POINT ( 'NONE',  ( 0.000000000000000000, 0.000000000000000000, 0.2999999999999981570 ) ) ;
#317 = CARTESIAN_POINT ( 'NONE',  ( 0.000000000000000000, 0.000000000000000000, 0.2999999999999981570 ) ) ;
#318 = EDGE_CURVE ( 'NONE', #211, #311, #88, .T. ) ;
#319 = DIRECTION ( 'NONE',  ( -0.000000000000000000, -0.000000000000000000, -1.000000000000000000 ) ) ;
#320 = STYLED_ITEM ( 'NONE', ( #251 ), #175 ) ;
#321 = DIRECTION ( 'NONE',  ( 0.000000000000000000, 0.000000000000000000, 1.000000000000000000 ) ) ;
#322 = COLOUR_RGB ( '',0.7921568627450980005, 0.8196078431372548767, 0.9333333333333333481 ) ;
#323 = CYLINDRICAL_SURFACE ( 'NONE', #294, 1.500000000000000222 ) ;
#324 = DIRECTION ( 'NONE',  ( 1.000000000000000000, 0.000000000000000000, 0.000000000000000000 ) ) ;
#325 = CARTESIAN_POINT ( 'NONE',  ( -0.5000000000000000000, 6.123233995736764803E-17, -1.414213562373090038 ) ) ;
#326 = AXIS2_PLACEMENT_3D ( 'NONE', #45, #67, #300 ) ;
#327 = CARTESIAN_POINT ( 'NONE',  ( 0.000000000000000000, 0.000000000000000000, 25.00000000000000000 ) ) ;
#328 = CARTESIAN_POINT ( 'NONE',  ( 0.000000000000000000, 0.000000000000000000, 40.00000000000000000 ) ) ;
#329 =( GEOMETRIC_REPRESENTATION_CONTEXT ( 3 ) GLOBAL_UNCERTAINTY_ASSIGNED_CONTEXT ( ( #262 ) ) GLOBAL_UNIT_ASSIGNED_CONTEXT ( ( #72, #75, #214 ) ) REPRESENTATION_CONTEXT ( 'NONE', 'WORKASPACE' ) );
#330 = FACE_OUTER_BOUND ( 'NONE', #308, .T. ) ;
#331 = CYLINDRICAL_SURFACE ( 'NONE', #149, 1.999999999999999556 ) ;
#332 = DIRECTION ( 'NONE',  ( 1.000000000000000000, 0.000000000000000000, 0.000000000000000000 ) ) ;
#333 = CARTESIAN_POINT ( 'NONE',  ( 0.000000000000000000, 0.000000000000000000, 40.00000000000000000 ) ) ;
#334 = AXIS2_PLACEMENT_3D ( 'NONE', #230, #177, #91 ) ;
#335 = CARTESIAN_POINT ( 'NONE',  ( 1.500000000000000222, 1.836970198721030181E-16, 40.00000000000000000 ) ) ;
#336 = ORIENTED_EDGE ( 'NONE', *, *, #157, .T. ) ;
#337 = EDGE_CURVE ( 'NONE', #211, #60, #78, .T. ) ;
#338 = ORIENTED_EDGE ( 'NONE', *, *, #276, .T. ) ;
#339 = AXIS2_PLACEMENT_3D ( 'NONE', #328, #128, #125 ) ;
#340 = VERTEX_POINT ( 'NONE', #335 ) ;
#341 = APPLICATION_PROTOCOL_DEFINITION ( 'draft international standard', 'automotive_design', 1998, #62 ) ;
#342 = ORIENTED_EDGE ( 'NONE', *, *, #168, .F. ) ;
#343 = PRODUCT_DEFINITION_SHAPE ( 'NONE', 'NONE',  #252 ) ;
#344 = DIRECTION ( 'NONE',  ( 0.000000000000000000, 0.000000000000000000, 1.000000000000000000 ) ) ;
ENDSEC;
END-ISO-10303-21;
