ISO-10303-21;
HEADER;
FILE_DESCRIPTION (( 'STEP AP203' ),
    '1' );
FILE_NAME ('IP68-RAR-AXE.STEP',
    '2021-12-10T16:31:25',
    ( '' ),
    ( '' ),
    'SwSTEP 2.0',
    'SolidWorks 2016',
    '' );
FILE_SCHEMA (( 'CONFIG_CONTROL_DESIGN' ));
ENDSEC;

DATA;
#1 = ORIENTED_EDGE ( 'NONE', *, *, #275, .T. ) ;
#2 = APPROVAL_ROLE ( '' ) ;
#3 = DATE_AND_TIME ( #317, #16 ) ;
#4 = CIRCLE ( 'NONE', #104, 6.450000000000023300 ) ;
#5 = ORIENTED_EDGE ( 'NONE', *, *, #334, .T. ) ;
#6 = PERSON_AND_ORGANIZATION_ROLE ( 'design_owner' ) ;
#7 = AXIS2_PLACEMENT_3D ( 'NONE', #324, #349, #294 ) ;
#8 = LINE ( 'NONE', #103, #311 ) ;
#9 = EDGE_CURVE ( 'NONE', #133, #10, #309, .T. ) ;
#10 = VERTEX_POINT ( 'NONE', #197 ) ;
#11 = EDGE_LOOP ( 'NONE', ( #232, #49, #68, #304 ) ) ;
#12 = CARTESIAN_POINT ( 'NONE',  ( 0.0000000000000000000, 0.0000000000000000000, 22.50000000000000000 ) ) ;
#13 = VERTEX_POINT ( 'NONE', #260 ) ;
#14 = ADVANCED_FACE ( 'NONE', ( #88 ), #105, .T. ) ;
#15 = CARTESIAN_POINT ( 'NONE',  ( -7.450000000000000200, 9.123618653647781200E-016, -21.49999999999994300 ) ) ;
#16 = LOCAL_TIME ( 17, 31, 25.00000000000000000, #64 ) ;
#17 = DIRECTION ( 'NONE',  ( 1.000000000000000000, 0.0000000000000000000, -0.0000000000000000000 ) ) ;
#18 = CARTESIAN_POINT ( 'NONE',  ( 2.099999999999992500, 0.0000000000000000000, 22.50000000000000000 ) ) ;
#19 = DIRECTION ( 'NONE',  ( 1.000000000000000000, 0.0000000000000000000, -0.0000000000000000000 ) ) ;
#20 = APPROVAL ( #299, 'UNSPECIFIED' ) ;
#21 = CALENDAR_DATE ( 2021, 10, 12 ) ;
#22 = DIRECTION ( 'NONE',  ( 1.000000000000000000, 0.0000000000000000000, 0.0000000000000000000 ) ) ;
#23 = CYLINDRICAL_SURFACE ( 'NONE', #66, 2.099999999999992500 ) ;
#24 = ORIENTED_EDGE ( 'NONE', *, *, #189, .F. ) ;
#25 = EDGE_CURVE ( 'NONE', #186, #13, #4, .T. ) ;
#26 = DIRECTION ( 'NONE',  ( -0.0000000000000000000, -0.0000000000000000000, -1.000000000000000000 ) ) ;
#27 = CARTESIAN_POINT ( 'NONE',  ( -6.449999999999937100, 8.511295254074066000E-016, -22.50000000000000000 ) ) ;
#28 = PERSON_AND_ORGANIZATION ( #221, #29 ) ;
#29 = ORGANIZATION ( 'UNSPECIFIED', 'UNSPECIFIED', '' ) ;
#30 = AXIS2_PLACEMENT_3D ( 'NONE', #224, #71, #288 ) ;
#31 = ORIENTED_EDGE ( 'NONE', *, *, #159, .T. ) ;
#32 = DIRECTION ( 'NONE',  ( 1.000000000000000000, 0.0000000000000000000, 0.0000000000000000000 ) ) ;
#33 = APPROVAL_PERSON_ORGANIZATION ( #336, #122, #2 ) ;
#34 = LOCAL_TIME ( 17, 31, 25.00000000000000000, #160 ) ;
#35 = DIRECTION ( 'NONE',  ( -1.000000000000000000, 0.0000000000000000000, 0.0000000000000000000 ) ) ;
#36 = FACE_OUTER_BOUND ( 'NONE', #110, .T. ) ;
#37 = AXIS2_PLACEMENT_3D ( 'NONE', #179, #199, #77 ) ;
#38 = ADVANCED_FACE ( 'NONE', ( #41 ), #325, .F. ) ;
#39 = EDGE_CURVE ( 'NONE', #310, #333, #151, .T. ) ;
#40 = ADVANCED_FACE ( 'NONE', ( #277 ), #239, .T. ) ;
#41 = FACE_OUTER_BOUND ( 'NONE', #97, .T. ) ;
#42 = AXIS2_PLACEMENT_3D ( 'NONE', #281, #191, #63 ) ;
#43 = COORDINATED_UNIVERSAL_TIME_OFFSET ( 1, 0, .AHEAD. ) ;
#44 = CARTESIAN_POINT ( 'NONE',  ( -2.099999999999995200, 2.571758278209436000E-016, 22.50000000000000000 ) ) ;
#45 = ORIENTED_EDGE ( 'NONE', *, *, #25, .F. ) ;
#46 = ORIENTED_EDGE ( 'NONE', *, *, #55, .F. ) ;
#47 = DIRECTION ( 'NONE',  ( 1.000000000000000000, 0.0000000000000000000, 0.0000000000000000000 ) ) ;
#48 = EDGE_CURVE ( 'NONE', #193, #310, #332, .T. ) ;
#49 = ORIENTED_EDGE ( 'NONE', *, *, #298, .F. ) ;
#50 = CARTESIAN_POINT ( 'NONE',  ( 7.450000000000000200, 9.123618653647779200E-016, 21.50000000000001800 ) ) ;
#51 = APPROVAL_ROLE ( '' ) ;
#52 = CALENDAR_DATE ( 2021, 10, 12 ) ;
#53 = APPLICATION_PROTOCOL_DEFINITION ( 'international standard', 'config_control_design', 1994, #234 ) ;
#54 = EDGE_LOOP ( 'NONE', ( #214, #322 ) ) ;
#55 = EDGE_CURVE ( 'NONE', #339, #342, #201, .T. ) ;
#56 = AXIS2_PLACEMENT_3D ( 'NONE', #126, #263, #78 ) ;
#57 = PLANE ( 'NONE',  #98 ) ;
#58 = COORDINATED_UNIVERSAL_TIME_OFFSET ( 1, 0, .AHEAD. ) ;
#59 = CARTESIAN_POINT ( 'NONE',  ( 0.0000000000000000000, 0.0000000000000000000, 21.50000000000001800 ) ) ;
#60 = ORIENTED_EDGE ( 'NONE', *, *, #140, .F. ) ;
#61 = ORIENTED_EDGE ( 'NONE', *, *, #316, .F. ) ;
#62 = DIRECTION ( 'NONE',  ( -0.7071067811865500200, 8.659560562354962400E-017, 0.7071067811865451300 ) ) ;
#63 = DIRECTION ( 'NONE',  ( 1.000000000000000000, 0.0000000000000000000, 0.0000000000000000000 ) ) ;
#64 = COORDINATED_UNIVERSAL_TIME_OFFSET ( 1, 0, .AHEAD. ) ;
#65 = VECTOR ( 'NONE', #337, 1000.000000000000000 ) ;
#66 = AXIS2_PLACEMENT_3D ( 'NONE', #346, #176, #47 ) ;
#67 = DIRECTION ( 'NONE',  ( -0.0000000000000000000, -0.0000000000000000000, 1.000000000000000000 ) ) ;
#68 = ORIENTED_EDGE ( 'NONE', *, *, #94, .T. ) ;
#69 = ORIENTED_EDGE ( 'NONE', *, *, #298, .T. ) ;
#70 = EDGE_LOOP ( 'NONE', ( #327, #92 ) ) ;
#71 = DIRECTION ( 'NONE',  ( -0.0000000000000000000, -0.0000000000000000000, 1.000000000000000000 ) ) ;
#72 = CARTESIAN_POINT ( 'NONE',  ( -2.099999999999992500, 2.571758278209432600E-016, -22.50000000000000000 ) ) ;
#73 = CC_DESIGN_PERSON_AND_ORGANIZATION_ASSIGNMENT ( #28, #296, ( #315 ) ) ;
#74 = DIRECTION ( 'NONE',  ( -0.7071067811865463500, 0.0000000000000000000, -0.7071067811865487900 ) ) ;
#75 = ORIENTED_EDGE ( 'NONE', *, *, #9, .T. ) ;
#76 = ORIENTED_EDGE ( 'NONE', *, *, #198, .F. ) ;
#77 = DIRECTION ( 'NONE',  ( -1.000000000000000000, 0.0000000000000000000, 0.0000000000000000000 ) ) ;
#78 = DIRECTION ( 'NONE',  ( -1.000000000000000000, 0.0000000000000000000, 0.0000000000000000000 ) ) ;
#79 = PERSON_AND_ORGANIZATION_ROLE ( 'classification_officer' ) ;
#80 =( LENGTH_UNIT ( ) NAMED_UNIT ( * ) SI_UNIT ( .MILLI., .METRE. ) );
#81 = EDGE_CURVE ( 'NONE', #310, #193, #290, .T. ) ;
#82 = APPROVAL_PERSON_ORGANIZATION ( #182, #20, #181 ) ;
#83 = VECTOR ( 'NONE', #26, 1000.000000000000000 ) ;
#84 = DIRECTION ( 'NONE',  ( 0.0000000000000000000, 0.0000000000000000000, -1.000000000000000000 ) ) ;
#85 = AXIS2_PLACEMENT_3D ( 'NONE', #138, #67, #171 ) ;
#86 = ADVANCED_BREP_SHAPE_REPRESENTATION ( 'IP68-RAR-AXE', ( #289, #257 ), #235 ) ;
#87 = DIRECTION ( 'NONE',  ( 1.000000000000000000, 0.0000000000000000000, 0.0000000000000000000 ) ) ;
#88 = FACE_OUTER_BOUND ( 'NONE', #287, .T. ) ;
#89 = ORIENTED_EDGE ( 'NONE', *, *, #128, .T. ) ;
#90 = VECTOR ( 'NONE', #259, 1000.000000000000000 ) ;
#91 = CC_DESIGN_APPROVAL ( #122, ( #132 ) ) ;
#92 = ORIENTED_EDGE ( 'NONE', *, *, #81, .T. ) ;
#93 = DIRECTION ( 'NONE',  ( 1.000000000000000000, 0.0000000000000000000, 0.0000000000000000000 ) ) ;
#94 = EDGE_CURVE ( 'NONE', #250, #10, #205, .T. ) ;
#95 = CARTESIAN_POINT ( 'NONE',  ( 0.0000000000000000000, 0.0000000000000000000, -21.49999999999994300 ) ) ;
#96 = CIRCLE ( 'NONE', #211, 7.450000000000000200 ) ;
#97 = EDGE_LOOP ( 'NONE', ( #207, #284, #31, #212 ) ) ;
#98 = AXIS2_PLACEMENT_3D ( 'NONE', #344, #121, #19 ) ;
#99 = APPROVAL_DATE_TIME ( #172, #122 ) ;
#100 = LOCAL_TIME ( 17, 31, 25.00000000000000000, #319 ) ;
#101 = DIRECTION ( 'NONE',  ( -0.0000000000000000000, -0.0000000000000000000, -1.000000000000000000 ) ) ;
#102 = DIRECTION ( 'NONE',  ( 1.000000000000000000, 0.0000000000000000000, 0.0000000000000000000 ) ) ;
#103 = CARTESIAN_POINT ( 'NONE',  ( -6.450000000000023300, 0.0000000000000000000, 22.50000000000000000 ) ) ;
#104 = AXIS2_PLACEMENT_3D ( 'NONE', #265, #295, #202 ) ;
#105 = CONICAL_SURFACE ( 'NONE', #255, 7.450000000000000200, 0.7853981633974517200 ) ;
#106 = CARTESIAN_POINT ( 'NONE',  ( 7.450000000000000200, 9.123618653647779200E-016, 22.50000000000000000 ) ) ;
#107 = CARTESIAN_POINT ( 'NONE',  ( 0.0000000000000000000, 0.0000000000000000000, 0.0000000000000000000 ) ) ;
#108 =( NAMED_UNIT ( * ) SI_UNIT ( $, .STERADIAN. ) SOLID_ANGLE_UNIT ( ) );
#109 = DESIGN_CONTEXT ( 'detailed design', #236, 'design' ) ;
#110 = EDGE_LOOP ( 'NONE', ( #117, #233, #178, #345 ) ) ;
#111 = APPLICATION_PROTOCOL_DEFINITION ( 'international standard', 'config_control_design', 1994, #236 ) ;
#112 = AXIS2_PLACEMENT_3D ( 'NONE', #258, #101, #102 ) ;
#113 = CIRCLE ( 'NONE', #85, 2.099999999999995200 ) ;
#114 = ORIENTED_EDGE ( 'NONE', *, *, #203, .F. ) ;
#115 = DATE_AND_TIME ( #52, #170 ) ;
#116 = ORIENTED_EDGE ( 'NONE', *, *, #94, .F. ) ;
#117 = ORIENTED_EDGE ( 'NONE', *, *, #39, .F. ) ;
#118 = EDGE_LOOP ( 'NONE', ( #223, #1, #268, #297 ) ) ;
#119 = SHAPE_DEFINITION_REPRESENTATION ( #228, #86 ) ;
#120 = APPROVAL ( #303, 'UNSPECIFIED' ) ;
#121 = DIRECTION ( 'NONE',  ( 0.0000000000000000000, 0.0000000000000000000, 1.000000000000000000 ) ) ;
#122 = APPROVAL ( #152, 'UNSPECIFIED' ) ;
#123 = CARTESIAN_POINT ( 'NONE',  ( 0.0000000000000000000, 0.0000000000000000000, -21.49999999999994300 ) ) ;
#124 = PERSON_AND_ORGANIZATION ( #221, #29 ) ;
#125 = DIRECTION ( 'NONE',  ( 1.000000000000000000, 0.0000000000000000000, 0.0000000000000000000 ) ) ;
#126 = CARTESIAN_POINT ( 'NONE',  ( 0.0000000000000000000, 0.0000000000000000000, 22.50000000000000000 ) ) ;
#127 = CLOSED_SHELL ( 'NONE', ( #40, #14, #38, #285, #279, #163, #188, #306, #282, #161 ) ) ;
#128 = EDGE_CURVE ( 'NONE', #240, #133, #318, .T. ) ;
#129 = PERSON_AND_ORGANIZATION_ROLE ( 'creator' ) ;
#130 = LINE ( 'NONE', #227, #83 ) ;
#131 = ORIENTED_EDGE ( 'NONE', *, *, #203, .T. ) ;
#132 = SECURITY_CLASSIFICATION ( '', '', #328 ) ;
#133 = VERTEX_POINT ( 'NONE', #314 ) ;
#134 = CC_DESIGN_PERSON_AND_ORGANIZATION_ASSIGNMENT ( #124, #79, ( #132 ) ) ;
#135 = FACE_OUTER_BOUND ( 'NONE', #118, .T. ) ;
#136 = FACE_OUTER_BOUND ( 'NONE', #291, .T. ) ;
#137 = ORIENTED_EDGE ( 'NONE', *, *, #187, .F. ) ;
#138 = CARTESIAN_POINT ( 'NONE',  ( 0.0000000000000000000, 0.0000000000000000000, 22.50000000000000000 ) ) ;
#139 = AXIS2_PLACEMENT_3D ( 'NONE', #12, #165, #35 ) ;
#140 = EDGE_CURVE ( 'NONE', #13, #342, #312, .T. ) ;
#141 = DIRECTION ( 'NONE',  ( 1.000000000000000000, 0.0000000000000000000, 0.0000000000000000000 ) ) ;
#142 = CARTESIAN_POINT ( 'NONE',  ( 0.0000000000000000000, 0.0000000000000000000, 22.50000000000000000 ) ) ;
#143 = APPROVAL_DATE_TIME ( #347, #20 ) ;
#144 = CIRCLE ( 'NONE', #112, 6.449999999999937100 ) ;
#145 = CONICAL_SURFACE ( 'NONE', #139, 6.450000000000023300, 0.7853981633974466100 ) ;
#146 = CARTESIAN_POINT ( 'NONE',  ( 2.099999999999995200, 0.0000000000000000000, 22.50000000000000000 ) ) ;
#147 = ORIENTED_EDGE ( 'NONE', *, *, #177, .F. ) ;
#148 = CC_DESIGN_DATE_AND_TIME_ASSIGNMENT ( #115, #264, ( #132 ) ) ;
#149 = DIRECTION ( 'NONE',  ( -0.0000000000000000000, -0.0000000000000000000, -1.000000000000000000 ) ) ;
#150 = DIRECTION ( 'NONE',  ( -1.000000000000000000, 0.0000000000000000000, 0.0000000000000000000 ) ) ;
#151 = LINE ( 'NONE', #153, #320 ) ;
#152 = APPROVAL_STATUS ( 'not_yet_approved' ) ;
#153 = CARTESIAN_POINT ( 'NONE',  ( -2.099999999999992500, 2.571758278209432600E-016, 22.50000000000000000 ) ) ;
#154 = DIRECTION ( 'NONE',  ( 0.0000000000000000000, 0.0000000000000000000, 1.000000000000000000 ) ) ;
#155 = CARTESIAN_POINT ( 'NONE',  ( 0.0000000000000000000, 0.0000000000000000000, 22.50000000000000000 ) ) ;
#156 = CARTESIAN_POINT ( 'NONE',  ( 0.0000000000000000000, 0.0000000000000000000, 22.50000000000000000 ) ) ;
#157 = CC_DESIGN_DATE_AND_TIME_ASSIGNMENT ( #3, #241, ( #184 ) ) ;
#158 = CARTESIAN_POINT ( 'NONE',  ( -7.450000000000000200, 0.0000000000000000000, 21.50000000000001800 ) ) ;
#159 = EDGE_CURVE ( 'NONE', #333, #292, #225, .T. ) ;
#160 = COORDINATED_UNIVERSAL_TIME_OFFSET ( 1, 0, .AHEAD. ) ;
#161 = ADVANCED_FACE ( 'NONE', ( #136 ), #145, .T. ) ;
#162 = AXIS2_PLACEMENT_3D ( 'NONE', #330, #335, #93 ) ;
#163 = ADVANCED_FACE ( 'NONE', ( #302, #231 ), #216, .T. ) ;
#164 = CARTESIAN_POINT ( 'NONE',  ( 6.450000000000023300, 7.898971854500457300E-016, 22.50000000000000000 ) ) ;
#165 = DIRECTION ( 'NONE',  ( 0.0000000000000000000, 0.0000000000000000000, -1.000000000000000000 ) ) ;
#166 = DATE_AND_TIME ( #185, #34 ) ;
#167 = VECTOR ( 'NONE', #62, 1000.000000000000100 ) ;
#168 = ORIENTED_EDGE ( 'NONE', *, *, #177, .T. ) ;
#169 = CC_DESIGN_SECURITY_CLASSIFICATION ( #132, ( #315 ) ) ;
#170 = LOCAL_TIME ( 17, 31, 25.00000000000000000, #58 ) ;
#171 = DIRECTION ( 'NONE',  ( 1.000000000000000000, 0.0000000000000000000, 0.0000000000000000000 ) ) ;
#172 = DATE_AND_TIME ( #248, #253 ) ;
#173 = ORIENTED_EDGE ( 'NONE', *, *, #275, .F. ) ;
#174 = CARTESIAN_POINT ( 'NONE',  ( 0.0000000000000000000, 0.0000000000000000000, -21.49999999999994300 ) ) ;
#175 = PRODUCT_RELATED_PRODUCT_CATEGORY ( 'detail', '', ( #190 ) ) ;
#176 = DIRECTION ( 'NONE',  ( -0.0000000000000000000, -0.0000000000000000000, 1.000000000000000000 ) ) ;
#177 = EDGE_CURVE ( 'NONE', #342, #339, #273, .T. ) ;
#178 = ORIENTED_EDGE ( 'NONE', *, *, #247, .T. ) ;
#179 = CARTESIAN_POINT ( 'NONE',  ( 0.0000000000000000000, 0.0000000000000000000, 22.50000000000000000 ) ) ;
#180 = AXIS2_PLACEMENT_3D ( 'NONE', #59, #278, #218 ) ;
#181 = APPROVAL_ROLE ( '' ) ;
#182 = PERSON_AND_ORGANIZATION ( #221, #29 ) ;
#183 = LINE ( 'NONE', #106, #301 ) ;
#184 = PRODUCT_DEFINITION ( 'UNKNOWN', '', #315, #109 ) ;
#185 = CALENDAR_DATE ( 2021, 10, 12 ) ;
#186 = VERTEX_POINT ( 'NONE', #249 ) ;
#187 = EDGE_CURVE ( 'NONE', #292, #333, #113, .T. ) ;
#188 = ADVANCED_FACE ( 'NONE', ( #348, #192 ), #57, .F. ) ;
#189 = EDGE_CURVE ( 'NONE', #10, #133, #96, .T. ) ;
#190 = PRODUCT ( 'IP68-RAR-AXE', 'IP68-RAR-AXE', '', ( #270 ) ) ;
#191 = DIRECTION ( 'NONE',  ( -0.0000000000000000000, -0.0000000000000000000, 1.000000000000000000 ) ) ;
#192 = FACE_BOUND ( 'NONE', #70, .T. ) ;
#193 = VERTEX_POINT ( 'NONE', #254 ) ;
#194 = PERSON_AND_ORGANIZATION ( #221, #29 ) ;
#195 = APPROVAL_PERSON_ORGANIZATION ( #229, #120, #51 ) ;
#196 = ORIENTED_EDGE ( 'NONE', *, *, #140, .T. ) ;
#197 = CARTESIAN_POINT ( 'NONE',  ( 7.450000000000000200, 9.123618653647779200E-016, -21.49999999999994300 ) ) ;
#198 = EDGE_CURVE ( 'NONE', #240, #250, #308, .T. ) ;
#199 = DIRECTION ( 'NONE',  ( -0.0000000000000000000, -0.0000000000000000000, -1.000000000000000000 ) ) ;
#200 = LINE ( 'NONE', #18, #90 ) ;
#201 = CIRCLE ( 'NONE', #244, 7.450000000000000200 ) ;
#202 = DIRECTION ( 'NONE',  ( 1.000000000000000000, 0.0000000000000000000, 0.0000000000000000000 ) ) ;
#203 = EDGE_CURVE ( 'NONE', #186, #339, #8, .T. ) ;
#204 = PERSON_AND_ORGANIZATION ( #221, #29 ) ;
#205 = LINE ( 'NONE', #213, #245 ) ;
#206 = DIRECTION ( 'NONE',  ( 0.0000000000000000000, 0.0000000000000000000, 1.000000000000000000 ) ) ;
#207 = ORIENTED_EDGE ( 'NONE', *, *, #81, .F. ) ;
#208 = DIRECTION ( 'NONE',  ( 1.000000000000000000, 0.0000000000000000000, 0.0000000000000000000 ) ) ;
#209 = PERSON_AND_ORGANIZATION_ROLE ( 'creator' ) ;
#210 = FACE_OUTER_BOUND ( 'NONE', #222, .T. ) ;
#211 = AXIS2_PLACEMENT_3D ( 'NONE', #95, #293, #262 ) ;
#212 = ORIENTED_EDGE ( 'NONE', *, *, #247, .F. ) ;
#213 = CARTESIAN_POINT ( 'NONE',  ( 7.450000000000000200, 0.0000000000000000000, -21.49999999999994300 ) ) ;
#214 = ORIENTED_EDGE ( 'NONE', *, *, #25, .T. ) ;
#215 = AXIS2_PLACEMENT_3D ( 'NONE', #142, #149, #150 ) ;
#216 = PLANE ( 'NONE',  #217 ) ;
#217 = AXIS2_PLACEMENT_3D ( 'NONE', #252, #283, #17 ) ;
#218 = DIRECTION ( 'NONE',  ( 1.000000000000000000, 0.0000000000000000000, 0.0000000000000000000 ) ) ;
#219 = UNCERTAINTY_MEASURE_WITH_UNIT (LENGTH_MEASURE( 1.000000000000000100E-005 ), #80, 'distance_accuracy_value', 'NONE');
#220 = FACE_OUTER_BOUND ( 'NONE', #11, .T. ) ;
#221 = PERSON ( 'UNSPECIFIED', 'UNSPECIFIED', 'UNSPECIFIED', ('UNSPECIFIED'), ('UNSPECIFIED'), ('UNSPECIFIED') ) ;
#222 = EDGE_LOOP ( 'NONE', ( #173, #168, #5, #75 ) ) ;
#223 = ORIENTED_EDGE ( 'NONE', *, *, #55, .T. ) ;
#224 = CARTESIAN_POINT ( 'NONE',  ( 0.0000000000000000000, 0.0000000000000000000, -21.49999999999994300 ) ) ;
#225 = CIRCLE ( 'NONE', #42, 2.099999999999995200 ) ;
#226 = CC_DESIGN_PERSON_AND_ORGANIZATION_ASSIGNMENT ( #307, #6, ( #190 ) ) ;
#227 = CARTESIAN_POINT ( 'NONE',  ( -7.450000000000000200, 0.0000000000000000000, 22.50000000000000000 ) ) ;
#228 = PRODUCT_DEFINITION_SHAPE ( 'NONE', 'NONE',  #184 ) ;
#229 = PERSON_AND_ORGANIZATION ( #221, #29 ) ;
#230 = DIRECTION ( 'NONE',  ( -0.0000000000000000000, -0.0000000000000000000, 1.000000000000000000 ) ) ;
#231 = FACE_BOUND ( 'NONE', #313, .T. ) ;
#232 = ORIENTED_EDGE ( 'NONE', *, *, #128, .F. ) ;
#233 = ORIENTED_EDGE ( 'NONE', *, *, #48, .F. ) ;
#234 = APPLICATION_CONTEXT ( 'configuration controlled 3d designs of mechanical parts and assemblies' ) ;
#235 =( GEOMETRIC_REPRESENTATION_CONTEXT ( 3 ) GLOBAL_UNCERTAINTY_ASSIGNED_CONTEXT ( ( #219 ) ) GLOBAL_UNIT_ASSIGNED_CONTEXT ( ( #80, #269, #108 ) ) REPRESENTATION_CONTEXT ( 'NONE', 'WORKASPACE' ) );
#236 = APPLICATION_CONTEXT ( 'configuration controlled 3d designs of mechanical parts and assemblies' ) ;
#237 = DIRECTION ( 'NONE',  ( -0.0000000000000000000, -0.0000000000000000000, 1.000000000000000000 ) ) ;
#238 = AXIS2_PLACEMENT_3D ( 'NONE', #155, #206, #208 ) ;
#239 = CONICAL_SURFACE ( 'NONE', #56, 6.450000000000023300, 0.7853981633974466100 ) ;
#240 = VERTEX_POINT ( 'NONE', #27 ) ;
#241 = DATE_TIME_ROLE ( 'creation_date' ) ;
#242 = CARTESIAN_POINT ( 'NONE',  ( 0.0000000000000000000, 0.0000000000000000000, -22.50000000000000000 ) ) ;
#243 = DIRECTION ( 'NONE',  ( 0.0000000000000000000, 0.0000000000000000000, 1.000000000000000000 ) ) ;
#244 = AXIS2_PLACEMENT_3D ( 'NONE', #271, #84, #300 ) ;
#245 = VECTOR ( 'NONE', #246, 1000.000000000000100 ) ;
#246 = DIRECTION ( 'NONE',  ( 0.7071067811865500200, 0.0000000000000000000, 0.7071067811865451300 ) ) ;
#247 = EDGE_CURVE ( 'NONE', #193, #292, #200, .T. ) ;
#248 = CALENDAR_DATE ( 2021, 10, 12 ) ;
#249 = CARTESIAN_POINT ( 'NONE',  ( -6.450000000000023300, 0.0000000000000000000, 22.50000000000000000 ) ) ;
#250 = VERTEX_POINT ( 'NONE', #323 ) ;
#251 = CC_DESIGN_PERSON_AND_ORGANIZATION_ASSIGNMENT ( #204, #209, ( #184 ) ) ;
#252 = CARTESIAN_POINT ( 'NONE',  ( 0.0000000000000000000, 0.0000000000000000000, 22.50000000000000000 ) ) ;
#253 = LOCAL_TIME ( 17, 31, 25.00000000000000000, #43 ) ;
#254 = CARTESIAN_POINT ( 'NONE',  ( 2.099999999999992500, 0.0000000000000000000, -22.50000000000000000 ) ) ;
#255 = AXIS2_PLACEMENT_3D ( 'NONE', #123, #286, #141 ) ;
#256 = EDGE_LOOP ( 'NONE', ( #69, #274 ) ) ;
#257 = AXIS2_PLACEMENT_3D ( 'NONE', #107, #154, #32 ) ;
#258 = CARTESIAN_POINT ( 'NONE',  ( 0.0000000000000000000, 0.0000000000000000000, -22.50000000000000000 ) ) ;
#259 = DIRECTION ( 'NONE',  ( -0.0000000000000000000, -0.0000000000000000000, 1.000000000000000000 ) ) ;
#260 = CARTESIAN_POINT ( 'NONE',  ( 6.450000000000023300, 8.511295254074120200E-016, 22.50000000000000000 ) ) ;
#261 = CIRCLE ( 'NONE', #238, 6.450000000000023300 ) ;
#262 = DIRECTION ( 'NONE',  ( 1.000000000000000000, 0.0000000000000000000, 0.0000000000000000000 ) ) ;
#263 = DIRECTION ( 'NONE',  ( 0.0000000000000000000, 0.0000000000000000000, -1.000000000000000000 ) ) ;
#264 = DATE_TIME_ROLE ( 'classification_date' ) ;
#265 = CARTESIAN_POINT ( 'NONE',  ( 0.0000000000000000000, 0.0000000000000000000, 22.50000000000000000 ) ) ;
#266 = CYLINDRICAL_SURFACE ( 'NONE', #215, 7.450000000000000200 ) ;
#267 = ORIENTED_EDGE ( 'NONE', *, *, #159, .F. ) ;
#268 = ORIENTED_EDGE ( 'NONE', *, *, #189, .T. ) ;
#269 =( NAMED_UNIT ( * ) PLANE_ANGLE_UNIT ( ) SI_UNIT ( $, .RADIAN. ) );
#270 = MECHANICAL_CONTEXT ( 'NONE', #234, 'mechanical' ) ;
#271 = CARTESIAN_POINT ( 'NONE',  ( 0.0000000000000000000, 0.0000000000000000000, 21.50000000000001800 ) ) ;
#272 = CC_DESIGN_PERSON_AND_ORGANIZATION_ASSIGNMENT ( #194, #129, ( #315 ) ) ;
#273 = CIRCLE ( 'NONE', #180, 7.450000000000000200 ) ;
#274 = ORIENTED_EDGE ( 'NONE', *, *, #198, .T. ) ;
#275 = EDGE_CURVE ( 'NONE', #342, #10, #183, .T. ) ;
#276 = AXIS2_PLACEMENT_3D ( 'NONE', #174, #321, #22 ) ;
#277 = FACE_OUTER_BOUND ( 'NONE', #338, .T. ) ;
#278 = DIRECTION ( 'NONE',  ( 0.0000000000000000000, 0.0000000000000000000, -1.000000000000000000 ) ) ;
#279 = ADVANCED_FACE ( 'NONE', ( #210 ), #266, .T. ) ;
#280 = AXIS2_PLACEMENT_3D ( 'NONE', #156, #230, #125 ) ;
#281 = CARTESIAN_POINT ( 'NONE',  ( 0.0000000000000000000, 0.0000000000000000000, 22.50000000000000000 ) ) ;
#282 = ADVANCED_FACE ( 'NONE', ( #220 ), #341, .T. ) ;
#283 = DIRECTION ( 'NONE',  ( 0.0000000000000000000, 0.0000000000000000000, 1.000000000000000000 ) ) ;
#284 = ORIENTED_EDGE ( 'NONE', *, *, #39, .T. ) ;
#285 = ADVANCED_FACE ( 'NONE', ( #135 ), #331, .T. ) ;
#286 = DIRECTION ( 'NONE',  ( -0.0000000000000000000, -0.0000000000000000000, 1.000000000000000000 ) ) ;
#287 = EDGE_LOOP ( 'NONE', ( #76, #89, #24, #116 ) ) ;
#288 = DIRECTION ( 'NONE',  ( 1.000000000000000000, 0.0000000000000000000, 0.0000000000000000000 ) ) ;
#289 = MANIFOLD_SOLID_BREP ( 'Chanfrein1', #127 ) ;
#290 = CIRCLE ( 'NONE', #162, 2.099999999999992500 ) ;
#291 = EDGE_LOOP ( 'NONE', ( #60, #45, #131, #147 ) ) ;
#292 = VERTEX_POINT ( 'NONE', #146 ) ;
#293 = DIRECTION ( 'NONE',  ( -0.0000000000000000000, -0.0000000000000000000, 1.000000000000000000 ) ) ;
#294 = DIRECTION ( 'NONE',  ( 1.000000000000000000, 0.0000000000000000000, 0.0000000000000000000 ) ) ;
#295 = DIRECTION ( 'NONE',  ( 0.0000000000000000000, 0.0000000000000000000, 1.000000000000000000 ) ) ;
#296 = PERSON_AND_ORGANIZATION_ROLE ( 'design_supplier' ) ;
#297 = ORIENTED_EDGE ( 'NONE', *, *, #334, .F. ) ;
#298 = EDGE_CURVE ( 'NONE', #250, #240, #144, .T. ) ;
#299 = APPROVAL_STATUS ( 'not_yet_approved' ) ;
#300 = DIRECTION ( 'NONE',  ( 1.000000000000000000, 0.0000000000000000000, 0.0000000000000000000 ) ) ;
#301 = VECTOR ( 'NONE', #326, 1000.000000000000000 ) ;
#302 = FACE_OUTER_BOUND ( 'NONE', #54, .T. ) ;
#303 = APPROVAL_STATUS ( 'not_yet_approved' ) ;
#304 = ORIENTED_EDGE ( 'NONE', *, *, #9, .F. ) ;
#305 = CC_DESIGN_APPROVAL ( #120, ( #315 ) ) ;
#306 = ADVANCED_FACE ( 'NONE', ( #36 ), #23, .F. ) ;
#307 = PERSON_AND_ORGANIZATION ( #221, #29 ) ;
#308 = CIRCLE ( 'NONE', #7, 6.449999999999937100 ) ;
#309 = CIRCLE ( 'NONE', #30, 7.450000000000000200 ) ;
#310 = VERTEX_POINT ( 'NONE', #72 ) ;
#311 = VECTOR ( 'NONE', #74, 1000.000000000000000 ) ;
#312 = LINE ( 'NONE', #164, #65 ) ;
#313 = EDGE_LOOP ( 'NONE', ( #137, #267 ) ) ;
#314 = CARTESIAN_POINT ( 'NONE',  ( -7.450000000000000200, 0.0000000000000000000, -21.49999999999994300 ) ) ;
#315 = PRODUCT_DEFINITION_FORMATION_WITH_SPECIFIED_SOURCE ( 'ANY', '', #190, .NOT_KNOWN. ) ;
#316 = EDGE_CURVE ( 'NONE', #13, #186, #261, .T. ) ;
#317 = CALENDAR_DATE ( 2021, 10, 12 ) ;
#318 = LINE ( 'NONE', #15, #167 ) ;
#319 = COORDINATED_UNIVERSAL_TIME_OFFSET ( 1, 0, .AHEAD. ) ;
#320 = VECTOR ( 'NONE', #237, 1000.000000000000000 ) ;
#321 = DIRECTION ( 'NONE',  ( -0.0000000000000000000, -0.0000000000000000000, 1.000000000000000000 ) ) ;
#322 = ORIENTED_EDGE ( 'NONE', *, *, #316, .T. ) ;
#323 = CARTESIAN_POINT ( 'NONE',  ( 6.449999999999937100, 0.0000000000000000000, -22.50000000000000000 ) ) ;
#324 = CARTESIAN_POINT ( 'NONE',  ( 0.0000000000000000000, 0.0000000000000000000, -22.50000000000000000 ) ) ;
#325 = CYLINDRICAL_SURFACE ( 'NONE', #280, 2.099999999999992500 ) ;
#326 = DIRECTION ( 'NONE',  ( -0.0000000000000000000, -0.0000000000000000000, -1.000000000000000000 ) ) ;
#327 = ORIENTED_EDGE ( 'NONE', *, *, #48, .T. ) ;
#328 = SECURITY_CLASSIFICATION_LEVEL ( 'unclassified' ) ;
#329 = APPROVAL_DATE_TIME ( #166, #120 ) ;
#330 = CARTESIAN_POINT ( 'NONE',  ( 0.0000000000000000000, 0.0000000000000000000, -22.50000000000000000 ) ) ;
#331 = CYLINDRICAL_SURFACE ( 'NONE', #37, 7.450000000000000200 ) ;
#332 = CIRCLE ( 'NONE', #340, 2.099999999999992500 ) ;
#333 = VERTEX_POINT ( 'NONE', #44 ) ;
#334 = EDGE_CURVE ( 'NONE', #339, #133, #130, .T. ) ;
#335 = DIRECTION ( 'NONE',  ( 0.0000000000000000000, 0.0000000000000000000, 1.000000000000000000 ) ) ;
#336 = PERSON_AND_ORGANIZATION ( #221, #29 ) ;
#337 = DIRECTION ( 'NONE',  ( 0.7071067811865463500, 8.659560562354918100E-017, -0.7071067811865487900 ) ) ;
#338 = EDGE_LOOP ( 'NONE', ( #61, #196, #46, #114 ) ) ;
#339 = VERTEX_POINT ( 'NONE', #158 ) ;
#340 = AXIS2_PLACEMENT_3D ( 'NONE', #242, #243, #87 ) ;
#341 = CONICAL_SURFACE ( 'NONE', #276, 7.450000000000000200, 0.7853981633974517200 ) ;
#342 = VERTEX_POINT ( 'NONE', #50 ) ;
#343 = CC_DESIGN_APPROVAL ( #20, ( #184 ) ) ;
#344 = CARTESIAN_POINT ( 'NONE',  ( 0.0000000000000000000, 0.0000000000000000000, -22.50000000000000000 ) ) ;
#345 = ORIENTED_EDGE ( 'NONE', *, *, #187, .T. ) ;
#346 = CARTESIAN_POINT ( 'NONE',  ( 0.0000000000000000000, 0.0000000000000000000, 22.50000000000000000 ) ) ;
#347 = DATE_AND_TIME ( #21, #100 ) ;
#348 = FACE_OUTER_BOUND ( 'NONE', #256, .T. ) ;
#349 = DIRECTION ( 'NONE',  ( -0.0000000000000000000, -0.0000000000000000000, -1.000000000000000000 ) ) ;
ENDSEC;
END-ISO-10303-21;
