ISO-10303-21;
HEADER;
FILE_DESCRIPTION (( 'STEP AP203' ),
    '1' );
FILE_NAME ('IP68-POD-ENTARBR.STEP',
    '2021-12-10T15:11:12',
    ( '' ),
    ( '' ),
    'SwSTEP 2.0',
    'SolidWorks 2016',
    '' );
FILE_SCHEMA (( 'CONFIG_CONTROL_DESIGN' ));
ENDSEC;

DATA;
#1 = MECHANICAL_CONTEXT ( 'NONE', #155, 'mechanical' ) ;
#2 = AXIS2_PLACEMENT_3D ( 'NONE', #66, #106, #109 ) ;
#3 = CYLINDRICAL_SURFACE ( 'NONE', #80, 8.599999999999999600 ) ;
#4 = ORIENTED_EDGE ( 'NONE', *, *, #122, .F. ) ;
#5 = VERTEX_POINT ( 'NONE', #68 ) ;
#6 = AXIS2_PLACEMENT_3D ( 'NONE', #148, #15, #132 ) ;
#7 = CALENDAR_DATE ( 2021, 10, 12 ) ;
#8 = CC_DESIGN_SECURITY_CLASSIFICATION ( #237, ( #26 ) ) ;
#9 = AXIS2_PLACEMENT_3D ( 'NONE', #199, #50, #217 ) ;
#10 = CARTESIAN_POINT ( 'NONE',  ( 0.0000000000000000000, 0.0000000000000000000, 3.500000000000000000 ) ) ;
#11 = ORIENTED_EDGE ( 'NONE', *, *, #58, .T. ) ;
#12 = DIRECTION ( 'NONE',  ( 0.0000000000000000000, 0.0000000000000000000, 1.000000000000000000 ) ) ;
#13 = PRODUCT ( 'IP68-POD-ENTARBR', 'IP68-POD-ENTARBR', '', ( #1 ) ) ;
#14 = EDGE_CURVE ( 'NONE', #236, #5, #71, .T. ) ;
#15 = DIRECTION ( 'NONE',  ( -0.0000000000000000000, -0.0000000000000000000, -1.000000000000000000 ) ) ;
#16 = CIRCLE ( 'NONE', #2, 10.60000000000000000 ) ;
#17 = ADVANCED_FACE ( 'NONE', ( #29 ), #3, .F. ) ;
#18 = PERSON_AND_ORGANIZATION_ROLE ( 'design_owner' ) ;
#19 = AXIS2_PLACEMENT_3D ( 'NONE', #222, #72, #74 ) ;
#20 = VECTOR ( 'NONE', #101, 1000.000000000000000 ) ;
#21 = LOCAL_TIME ( 16, 11, 12.00000000000000000, #135 ) ;
#22 = VECTOR ( 'NONE', #184, 1000.000000000000000 ) ;
#23 = CC_DESIGN_DATE_AND_TIME_ASSIGNMENT ( #141, #173, ( #237 ) ) ;
#24 = ORIENTED_EDGE ( 'NONE', *, *, #52, .T. ) ;
#25 = CALENDAR_DATE ( 2021, 10, 12 ) ;
#26 = PRODUCT_DEFINITION_FORMATION_WITH_SPECIFIED_SOURCE ( 'ANY', '', #13, .NOT_KNOWN. ) ;
#27 = DIRECTION ( 'NONE',  ( -0.0000000000000000000, -0.0000000000000000000, -1.000000000000000000 ) ) ;
#28 = ORIENTED_EDGE ( 'NONE', *, *, #108, .F. ) ;
#29 = FACE_OUTER_BOUND ( 'NONE', #160, .T. ) ;
#30 = PLANE ( 'NONE',  #165 ) ;
#31 = CARTESIAN_POINT ( 'NONE',  ( -10.60000000000000000, 0.0000000000000000000, 0.0000000000000000000 ) ) ;
#32 = DATE_AND_TIME ( #153, #140 ) ;
#33 = APPLICATION_PROTOCOL_DEFINITION ( 'international standard', 'config_control_design', 1994, #157 ) ;
#34 = PERSON_AND_ORGANIZATION_ROLE ( 'creator' ) ;
#35 = PERSON_AND_ORGANIZATION_ROLE ( 'classification_officer' ) ;
#36 = EDGE_CURVE ( 'NONE', #187, #232, #172, .T. ) ;
#37 = ORIENTED_EDGE ( 'NONE', *, *, #228, .T. ) ;
#38 = EDGE_LOOP ( 'NONE', ( #42, #28 ) ) ;
#39 = DATE_AND_TIME ( #194, #248 ) ;
#40 = PRODUCT_RELATED_PRODUCT_CATEGORY ( 'detail', '', ( #13 ) ) ;
#41 = VECTOR ( 'NONE', #27, 1000.000000000000000 ) ;
#42 = ORIENTED_EDGE ( 'NONE', *, *, #225, .F. ) ;
#43 = COORDINATED_UNIVERSAL_TIME_OFFSET ( 1, 0, .AHEAD. ) ;
#44 = CYLINDRICAL_SURFACE ( 'NONE', #6, 10.60000000000000000 ) ;
#45 = CC_DESIGN_PERSON_AND_ORGANIZATION_ASSIGNMENT ( #137, #231, ( #26 ) ) ;
#46 = ORIENTED_EDGE ( 'NONE', *, *, #52, .F. ) ;
#47 = COORDINATED_UNIVERSAL_TIME_OFFSET ( 1, 0, .AHEAD. ) ;
#48 = CIRCLE ( 'NONE', #129, 8.599999999999999600 ) ;
#49 = CARTESIAN_POINT ( 'NONE',  ( 0.0000000000000000000, 0.0000000000000000000, 0.0000000000000000000 ) ) ;
#50 = DIRECTION ( 'NONE',  ( 0.0000000000000000000, 0.0000000000000000000, 1.000000000000000000 ) ) ;
#51 = DIRECTION ( 'NONE',  ( -1.000000000000000000, 0.0000000000000000000, 0.0000000000000000000 ) ) ;
#52 = EDGE_CURVE ( 'NONE', #120, #232, #154, .T. ) ;
#53 = DIRECTION ( 'NONE',  ( 0.0000000000000000000, 0.0000000000000000000, 1.000000000000000000 ) ) ;
#54 = DIRECTION ( 'NONE',  ( 1.000000000000000000, 0.0000000000000000000, 0.0000000000000000000 ) ) ;
#55 = PERSON ( 'UNSPECIFIED', 'UNSPECIFIED', 'UNSPECIFIED', ('UNSPECIFIED'), ('UNSPECIFIED'), ('UNSPECIFIED') ) ;
#56 = CC_DESIGN_PERSON_AND_ORGANIZATION_ASSIGNMENT ( #171, #34, ( #26 ) ) ;
#57 = PERSON_AND_ORGANIZATION ( #55, #206 ) ;
#58 = EDGE_CURVE ( 'NONE', #162, #236, #16, .T. ) ;
#59 = PERSON_AND_ORGANIZATION ( #55, #206 ) ;
#60 = ORIENTED_EDGE ( 'NONE', *, *, #58, .F. ) ;
#61 = DATE_TIME_ROLE ( 'creation_date' ) ;
#62 = ADVANCED_FACE ( 'NONE', ( #85, #81 ), #218, .F. ) ;
#63 = AXIS2_PLACEMENT_3D ( 'NONE', #49, #105, #238 ) ;
#64 = ORIENTED_EDGE ( 'NONE', *, *, #36, .F. ) ;
#65 = AXIS2_PLACEMENT_3D ( 'NONE', #128, #133, #54 ) ;
#66 = CARTESIAN_POINT ( 'NONE',  ( 0.0000000000000000000, 0.0000000000000000000, 3.500000000000000000 ) ) ;
#67 = EDGE_LOOP ( 'NONE', ( #215, #131, #138, #46 ) ) ;
#68 = CARTESIAN_POINT ( 'NONE',  ( 10.60000000000000000, 1.298125607096194400E-015, 0.0000000000000000000 ) ) ;
#69 = CARTESIAN_POINT ( 'NONE',  ( 0.0000000000000000000, 0.0000000000000000000, 3.500000000000000000 ) ) ;
#70 = APPROVAL_PERSON_ORGANIZATION ( #234, #91, #207 ) ;
#71 = LINE ( 'NONE', #125, #20 ) ;
#72 = DIRECTION ( 'NONE',  ( -0.0000000000000000000, -0.0000000000000000000, -1.000000000000000000 ) ) ;
#73 = DIRECTION ( 'NONE',  ( 1.000000000000000000, 0.0000000000000000000, 0.0000000000000000000 ) ) ;
#74 = DIRECTION ( 'NONE',  ( -1.000000000000000000, 0.0000000000000000000, 0.0000000000000000000 ) ) ;
#75 = CARTESIAN_POINT ( 'NONE',  ( 0.0000000000000000000, 0.0000000000000000000, 3.500000000000000000 ) ) ;
#76 = DIRECTION ( 'NONE',  ( 1.000000000000000000, 0.0000000000000000000, 0.0000000000000000000 ) ) ;
#77 = APPROVAL_ROLE ( '' ) ;
#78 =( NAMED_UNIT ( * ) PLANE_ANGLE_UNIT ( ) SI_UNIT ( $, .RADIAN. ) );
#79 = PERSON_AND_ORGANIZATION ( #55, #206 ) ;
#80 = AXIS2_PLACEMENT_3D ( 'NONE', #69, #201, #51 ) ;
#81 = FACE_BOUND ( 'NONE', #211, .T. ) ;
#82 = EDGE_LOOP ( 'NONE', ( #11, #37 ) ) ;
#83 = EDGE_CURVE ( 'NONE', #126, #120, #94, .T. ) ;
#84 = CARTESIAN_POINT ( 'NONE',  ( 8.599999999999999600, 1.053196247266723700E-015, 3.500000000000000000 ) ) ;
#85 = FACE_OUTER_BOUND ( 'NONE', #38, .T. ) ;
#86 = PERSON_AND_ORGANIZATION ( #55, #206 ) ;
#87 = CYLINDRICAL_SURFACE ( 'NONE', #96, 10.60000000000000000 ) ;
#88 = DIRECTION ( 'NONE',  ( 0.0000000000000000000, 0.0000000000000000000, 1.000000000000000000 ) ) ;
#89 = EDGE_LOOP ( 'NONE', ( #139, #60, #175, #111 ) ) ;
#90 = CARTESIAN_POINT ( 'NONE',  ( 0.0000000000000000000, 0.0000000000000000000, 3.500000000000000000 ) ) ;
#91 = APPROVAL ( #191, 'UNSPECIFIED' ) ;
#92 = CARTESIAN_POINT ( 'NONE',  ( -8.599999999999999600, 0.0000000000000000000, 0.0000000000000000000 ) ) ;
#93 = CARTESIAN_POINT ( 'NONE',  ( 0.0000000000000000000, 0.0000000000000000000, 0.0000000000000000000 ) ) ;
#94 = LINE ( 'NONE', #84, #22 ) ;
#95 = SECURITY_CLASSIFICATION_LEVEL ( 'unclassified' ) ;
#96 = AXIS2_PLACEMENT_3D ( 'NONE', #205, #246, #168 ) ;
#97 = FACE_OUTER_BOUND ( 'NONE', #89, .T. ) ;
#98 = AXIS2_PLACEMENT_3D ( 'NONE', #130, #12, #76 ) ;
#99 = PERSON_AND_ORGANIZATION ( #55, #206 ) ;
#100 = COORDINATED_UNIVERSAL_TIME_OFFSET ( 1, 0, .AHEAD. ) ;
#101 = DIRECTION ( 'NONE',  ( -0.0000000000000000000, -0.0000000000000000000, -1.000000000000000000 ) ) ;
#102 = CC_DESIGN_APPROVAL ( #197, ( #237 ) ) ;
#103 = ORIENTED_EDGE ( 'NONE', *, *, #122, .T. ) ;
#104 = DIRECTION ( 'NONE',  ( -0.0000000000000000000, -0.0000000000000000000, -1.000000000000000000 ) ) ;
#105 = DIRECTION ( 'NONE',  ( 0.0000000000000000000, 0.0000000000000000000, 1.000000000000000000 ) ) ;
#106 = DIRECTION ( 'NONE',  ( 0.0000000000000000000, 0.0000000000000000000, 1.000000000000000000 ) ) ;
#107 = UNCERTAINTY_MEASURE_WITH_UNIT (LENGTH_MEASURE( 1.000000000000000100E-005 ), #170, 'distance_accuracy_value', 'NONE');
#108 = EDGE_CURVE ( 'NONE', #5, #121, #147, .T. ) ;
#109 = DIRECTION ( 'NONE',  ( 1.000000000000000000, 0.0000000000000000000, 0.0000000000000000000 ) ) ;
#110 = CARTESIAN_POINT ( 'NONE',  ( -10.60000000000000000, 0.0000000000000000000, 3.500000000000000000 ) ) ;
#111 = ORIENTED_EDGE ( 'NONE', *, *, #225, .T. ) ;
#112 = ORIENTED_EDGE ( 'NONE', *, *, #245, .F. ) ;
#113 = DIRECTION ( 'NONE',  ( 1.000000000000000000, 0.0000000000000000000, 0.0000000000000000000 ) ) ;
#114 = APPROVAL_STATUS ( 'not_yet_approved' ) ;
#115 = APPROVAL_DATE_TIME ( #179, #91 ) ;
#116 = FACE_OUTER_BOUND ( 'NONE', #82, .T. ) ;
#117 = CC_DESIGN_PERSON_AND_ORGANIZATION_ASSIGNMENT ( #79, #35, ( #237 ) ) ;
#118 =( NAMED_UNIT ( * ) SI_UNIT ( $, .STERADIAN. ) SOLID_ANGLE_UNIT ( ) );
#119 = ADVANCED_FACE ( 'NONE', ( #97 ), #44, .T. ) ;
#120 = VERTEX_POINT ( 'NONE', #221 ) ;
#121 = VERTEX_POINT ( 'NONE', #31 ) ;
#122 = EDGE_CURVE ( 'NONE', #187, #126, #48, .T. ) ;
#123 = CLOSED_SHELL ( 'NONE', ( #17, #210, #177, #62, #119, #158 ) ) ;
#124 = APPROVAL ( #136, 'UNSPECIFIED' ) ;
#125 = CARTESIAN_POINT ( 'NONE',  ( 10.60000000000000000, 1.298125607096194400E-015, 3.500000000000000000 ) ) ;
#126 = VERTEX_POINT ( 'NONE', #149 ) ;
#127 = CARTESIAN_POINT ( 'NONE',  ( -8.599999999999999600, 0.0000000000000000000, 3.500000000000000000 ) ) ;
#128 = CARTESIAN_POINT ( 'NONE',  ( 0.0000000000000000000, 0.0000000000000000000, 0.0000000000000000000 ) ) ;
#129 = AXIS2_PLACEMENT_3D ( 'NONE', #90, #88, #134 ) ;
#130 = CARTESIAN_POINT ( 'NONE',  ( 0.0000000000000000000, 0.0000000000000000000, 0.0000000000000000000 ) ) ;
#131 = ORIENTED_EDGE ( 'NONE', *, *, #198, .T. ) ;
#132 = DIRECTION ( 'NONE',  ( -1.000000000000000000, 0.0000000000000000000, 0.0000000000000000000 ) ) ;
#133 = DIRECTION ( 'NONE',  ( 0.0000000000000000000, 0.0000000000000000000, 1.000000000000000000 ) ) ;
#134 = DIRECTION ( 'NONE',  ( 1.000000000000000000, 0.0000000000000000000, 0.0000000000000000000 ) ) ;
#135 = COORDINATED_UNIVERSAL_TIME_OFFSET ( 1, 0, .AHEAD. ) ;
#136 = APPROVAL_STATUS ( 'not_yet_approved' ) ;
#137 = PERSON_AND_ORGANIZATION ( #55, #206 ) ;
#138 = ORIENTED_EDGE ( 'NONE', *, *, #36, .T. ) ;
#139 = ORIENTED_EDGE ( 'NONE', *, *, #14, .F. ) ;
#140 = LOCAL_TIME ( 16, 11, 12.00000000000000000, #163 ) ;
#141 = DATE_AND_TIME ( #241, #230 ) ;
#142 = ORIENTED_EDGE ( 'NONE', *, *, #108, .T. ) ;
#143 = ADVANCED_BREP_SHAPE_REPRESENTATION ( 'IP68-POD-ENTARBR', ( #169, #98 ), #219 ) ;
#144 = ORIENTED_EDGE ( 'NONE', *, *, #245, .T. ) ;
#145 = CIRCLE ( 'NONE', #209, 10.60000000000000000 ) ;
#146 = EDGE_LOOP ( 'NONE', ( #4, #200 ) ) ;
#147 = CIRCLE ( 'NONE', #65, 10.60000000000000000 ) ;
#148 = CARTESIAN_POINT ( 'NONE',  ( 0.0000000000000000000, 0.0000000000000000000, 3.500000000000000000 ) ) ;
#149 = CARTESIAN_POINT ( 'NONE',  ( 8.599999999999999600, 1.053196247266723700E-015, 3.500000000000000000 ) ) ;
#150 = CC_DESIGN_APPROVAL ( #124, ( #212 ) ) ;
#151 = CARTESIAN_POINT ( 'NONE',  ( 0.0000000000000000000, 0.0000000000000000000, 3.500000000000000000 ) ) ;
#152 = APPLICATION_PROTOCOL_DEFINITION ( 'international standard', 'config_control_design', 1994, #155 ) ;
#153 = CALENDAR_DATE ( 2021, 10, 12 ) ;
#154 = CIRCLE ( 'NONE', #63, 8.599999999999999600 ) ;
#155 = APPLICATION_CONTEXT ( 'configuration controlled 3d designs of mechanical parts and assemblies' ) ;
#156 = ORIENTED_EDGE ( 'NONE', *, *, #228, .F. ) ;
#157 = APPLICATION_CONTEXT ( 'configuration controlled 3d designs of mechanical parts and assemblies' ) ;
#158 = ADVANCED_FACE ( 'NONE', ( #214 ), #192, .F. ) ;
#159 = APPROVAL_PERSON_ORGANIZATION ( #59, #124, #190 ) ;
#160 = EDGE_LOOP ( 'NONE', ( #103, #243, #112, #64 ) ) ;
#161 = DATE_AND_TIME ( #7, #239 ) ;
#162 = VERTEX_POINT ( 'NONE', #110 ) ;
#163 = COORDINATED_UNIVERSAL_TIME_OFFSET ( 1, 0, .AHEAD. ) ;
#164 = VECTOR ( 'NONE', #104, 1000.000000000000000 ) ;
#165 = AXIS2_PLACEMENT_3D ( 'NONE', #151, #167, #188 ) ;
#166 = CARTESIAN_POINT ( 'NONE',  ( -8.599999999999999600, 0.0000000000000000000, 3.500000000000000000 ) ) ;
#167 = DIRECTION ( 'NONE',  ( 0.0000000000000000000, 0.0000000000000000000, 1.000000000000000000 ) ) ;
#168 = DIRECTION ( 'NONE',  ( -1.000000000000000000, 0.0000000000000000000, 0.0000000000000000000 ) ) ;
#169 = MANIFOLD_SOLID_BREP ( 'Boss.-Extru.1', #123 ) ;
#170 =( LENGTH_UNIT ( ) NAMED_UNIT ( * ) SI_UNIT ( .MILLI., .METRE. ) );
#171 = PERSON_AND_ORGANIZATION ( #55, #206 ) ;
#172 = LINE ( 'NONE', #127, #164 ) ;
#173 = DATE_TIME_ROLE ( 'classification_date' ) ;
#174 = CIRCLE ( 'NONE', #240, 8.599999999999999600 ) ;
#175 = ORIENTED_EDGE ( 'NONE', *, *, #213, .T. ) ;
#176 = CC_DESIGN_PERSON_AND_ORGANIZATION_ASSIGNMENT ( #57, #229, ( #212 ) ) ;
#177 = ADVANCED_FACE ( 'NONE', ( #116, #182 ), #30, .T. ) ;
#178 = PRODUCT_DEFINITION_SHAPE ( 'NONE', 'NONE',  #212 ) ;
#179 = DATE_AND_TIME ( #25, #21 ) ;
#180 = CIRCLE ( 'NONE', #193, 8.599999999999999600 ) ;
#181 = APPROVAL_PERSON_ORGANIZATION ( #86, #197, #77 ) ;
#182 = FACE_BOUND ( 'NONE', #146, .T. ) ;
#183 = CC_DESIGN_APPROVAL ( #91, ( #26 ) ) ;
#184 = DIRECTION ( 'NONE',  ( -0.0000000000000000000, -0.0000000000000000000, -1.000000000000000000 ) ) ;
#185 = AXIS2_PLACEMENT_3D ( 'NONE', #186, #247, #224 ) ;
#186 = CARTESIAN_POINT ( 'NONE',  ( 0.0000000000000000000, 0.0000000000000000000, 0.0000000000000000000 ) ) ;
#187 = VERTEX_POINT ( 'NONE', #166 ) ;
#188 = DIRECTION ( 'NONE',  ( 1.000000000000000000, 0.0000000000000000000, -0.0000000000000000000 ) ) ;
#189 = CC_DESIGN_DATE_AND_TIME_ASSIGNMENT ( #39, #61, ( #212 ) ) ;
#190 = APPROVAL_ROLE ( '' ) ;
#191 = APPROVAL_STATUS ( 'not_yet_approved' ) ;
#192 = CYLINDRICAL_SURFACE ( 'NONE', #19, 8.599999999999999600 ) ;
#193 = AXIS2_PLACEMENT_3D ( 'NONE', #93, #226, #113 ) ;
#194 = CALENDAR_DATE ( 2021, 10, 12 ) ;
#195 = CIRCLE ( 'NONE', #185, 10.60000000000000000 ) ;
#196 = ORIENTED_EDGE ( 'NONE', *, *, #14, .T. ) ;
#197 = APPROVAL ( #114, 'UNSPECIFIED' ) ;
#198 = EDGE_CURVE ( 'NONE', #126, #187, #174, .T. ) ;
#199 = CARTESIAN_POINT ( 'NONE',  ( 0.0000000000000000000, 0.0000000000000000000, 0.0000000000000000000 ) ) ;
#200 = ORIENTED_EDGE ( 'NONE', *, *, #198, .F. ) ;
#201 = DIRECTION ( 'NONE',  ( -0.0000000000000000000, -0.0000000000000000000, -1.000000000000000000 ) ) ;
#202 = EDGE_LOOP ( 'NONE', ( #156, #196, #142, #223 ) ) ;
#203 = DIRECTION ( 'NONE',  ( 0.0000000000000000000, 0.0000000000000000000, 1.000000000000000000 ) ) ;
#204 = CC_DESIGN_PERSON_AND_ORGANIZATION_ASSIGNMENT ( #99, #18, ( #13 ) ) ;
#205 = CARTESIAN_POINT ( 'NONE',  ( 0.0000000000000000000, 0.0000000000000000000, 3.500000000000000000 ) ) ;
#206 = ORGANIZATION ( 'UNSPECIFIED', 'UNSPECIFIED', '' ) ;
#207 = APPROVAL_ROLE ( '' ) ;
#208 = APPROVAL_DATE_TIME ( #161, #197 ) ;
#209 = AXIS2_PLACEMENT_3D ( 'NONE', #75, #53, #73 ) ;
#210 = ADVANCED_FACE ( 'NONE', ( #227 ), #87, .T. ) ;
#211 = EDGE_LOOP ( 'NONE', ( #144, #24 ) ) ;
#212 = PRODUCT_DEFINITION ( 'UNKNOWN', '', #26, #233 ) ;
#213 = EDGE_CURVE ( 'NONE', #162, #121, #249, .T. ) ;
#214 = FACE_OUTER_BOUND ( 'NONE', #67, .T. ) ;
#215 = ORIENTED_EDGE ( 'NONE', *, *, #83, .F. ) ;
#216 = APPROVAL_DATE_TIME ( #32, #124 ) ;
#217 = DIRECTION ( 'NONE',  ( 1.000000000000000000, 0.0000000000000000000, -0.0000000000000000000 ) ) ;
#218 = PLANE ( 'NONE',  #9 ) ;
#219 =( GEOMETRIC_REPRESENTATION_CONTEXT ( 3 ) GLOBAL_UNCERTAINTY_ASSIGNED_CONTEXT ( ( #107 ) ) GLOBAL_UNIT_ASSIGNED_CONTEXT ( ( #170, #78, #118 ) ) REPRESENTATION_CONTEXT ( 'NONE', 'WORKASPACE' ) );
#220 = DIRECTION ( 'NONE',  ( 1.000000000000000000, 0.0000000000000000000, 0.0000000000000000000 ) ) ;
#221 = CARTESIAN_POINT ( 'NONE',  ( 8.599999999999999600, 1.053196247266723700E-015, 0.0000000000000000000 ) ) ;
#222 = CARTESIAN_POINT ( 'NONE',  ( 0.0000000000000000000, 0.0000000000000000000, 3.500000000000000000 ) ) ;
#223 = ORIENTED_EDGE ( 'NONE', *, *, #213, .F. ) ;
#224 = DIRECTION ( 'NONE',  ( 1.000000000000000000, 0.0000000000000000000, 0.0000000000000000000 ) ) ;
#225 = EDGE_CURVE ( 'NONE', #121, #5, #195, .T. ) ;
#226 = DIRECTION ( 'NONE',  ( 0.0000000000000000000, 0.0000000000000000000, 1.000000000000000000 ) ) ;
#227 = FACE_OUTER_BOUND ( 'NONE', #202, .T. ) ;
#228 = EDGE_CURVE ( 'NONE', #236, #162, #145, .T. ) ;
#229 = PERSON_AND_ORGANIZATION_ROLE ( 'creator' ) ;
#230 = LOCAL_TIME ( 16, 11, 12.00000000000000000, #43 ) ;
#231 = PERSON_AND_ORGANIZATION_ROLE ( 'design_supplier' ) ;
#232 = VERTEX_POINT ( 'NONE', #92 ) ;
#233 = DESIGN_CONTEXT ( 'detailed design', #157, 'design' ) ;
#234 = PERSON_AND_ORGANIZATION ( #55, #206 ) ;
#235 = SHAPE_DEFINITION_REPRESENTATION ( #178, #143 ) ;
#236 = VERTEX_POINT ( 'NONE', #244 ) ;
#237 = SECURITY_CLASSIFICATION ( '', '', #95 ) ;
#238 = DIRECTION ( 'NONE',  ( 1.000000000000000000, 0.0000000000000000000, 0.0000000000000000000 ) ) ;
#239 = LOCAL_TIME ( 16, 11, 12.00000000000000000, #100 ) ;
#240 = AXIS2_PLACEMENT_3D ( 'NONE', #10, #203, #220 ) ;
#241 = CALENDAR_DATE ( 2021, 10, 12 ) ;
#242 = CARTESIAN_POINT ( 'NONE',  ( -10.60000000000000000, 0.0000000000000000000, 3.500000000000000000 ) ) ;
#243 = ORIENTED_EDGE ( 'NONE', *, *, #83, .T. ) ;
#244 = CARTESIAN_POINT ( 'NONE',  ( 10.60000000000000000, 1.298125607096194400E-015, 3.500000000000000000 ) ) ;
#245 = EDGE_CURVE ( 'NONE', #232, #120, #180, .T. ) ;
#246 = DIRECTION ( 'NONE',  ( -0.0000000000000000000, -0.0000000000000000000, -1.000000000000000000 ) ) ;
#247 = DIRECTION ( 'NONE',  ( 0.0000000000000000000, 0.0000000000000000000, 1.000000000000000000 ) ) ;
#248 = LOCAL_TIME ( 16, 11, 12.00000000000000000, #47 ) ;
#249 = LINE ( 'NONE', #242, #41 ) ;
ENDSEC;
END-ISO-10303-21;
