ISO-10303-21;
HEADER;
/* Generated by software containing ST-Developer
 * from STEP Tools, Inc. (www.steptools.com) 
 */

FILE_DESCRIPTION(
/* description */ (''),
/* implementation_level */ '2;1');

FILE_NAME(
/* name */ 'C:/Users/Hadrien/Downloads/telescope250/supportpo v1.step',

/* time_stamp */ '2022-02-13T15:18:18+01:00',
/* author */ (''),
/* organization */ (''),
/* preprocessor_version */ 'ST-DEVELOPER v18.1',
/* originating_system */ 'Autodesk Translation Framework v10.13.0.1454',

/* authorisation */ '');

FILE_SCHEMA (('AUTOMOTIVE_DESIGN { 1 0 10303 214 3 1 1 }'));
ENDSEC;

DATA;
#10=MECHANICAL_DESIGN_GEOMETRIC_PRESENTATION_REPRESENTATION('',(#13),#358);
#11=SHAPE_REPRESENTATION_RELATIONSHIP('SRR','None',#365,#12);
#12=ADVANCED_BREP_SHAPE_REPRESENTATION('',(#14),#357);
#13=STYLED_ITEM('',(#374),#14);
#14=MANIFOLD_SOLID_BREP('Corps1',#210);
#15=FACE_BOUND('',#39,.T.);
#16=FACE_BOUND('',#48,.T.);
#17=PLANE('',#227);
#18=PLANE('',#229);
#19=PLANE('',#233);
#20=PLANE('',#236);
#21=PLANE('',#237);
#22=PLANE('',#238);
#23=PLANE('',#239);
#24=PLANE('',#240);
#25=FACE_OUTER_BOUND('',#36,.T.);
#26=FACE_OUTER_BOUND('',#37,.T.);
#27=FACE_OUTER_BOUND('',#38,.T.);
#28=FACE_OUTER_BOUND('',#40,.T.);
#29=FACE_OUTER_BOUND('',#41,.T.);
#30=FACE_OUTER_BOUND('',#42,.T.);
#31=FACE_OUTER_BOUND('',#43,.T.);
#32=FACE_OUTER_BOUND('',#44,.T.);
#33=FACE_OUTER_BOUND('',#45,.T.);
#34=FACE_OUTER_BOUND('',#46,.T.);
#35=FACE_OUTER_BOUND('',#47,.T.);
#36=EDGE_LOOP('',(#142,#143,#144,#145));
#37=EDGE_LOOP('',(#146,#147,#148,#149,#150,#151,#152,#153));
#38=EDGE_LOOP('',(#154,#155,#156,#157));
#39=EDGE_LOOP('',(#158));
#40=EDGE_LOOP('',(#159,#160,#161,#162));
#41=EDGE_LOOP('',(#163,#164,#165,#166));
#42=EDGE_LOOP('',(#167,#168,#169,#170));
#43=EDGE_LOOP('',(#171,#172,#173,#174));
#44=EDGE_LOOP('',(#175,#176,#177,#178,#179,#180,#181,#182));
#45=EDGE_LOOP('',(#183,#184,#185,#186));
#46=EDGE_LOOP('',(#187,#188,#189,#190));
#47=EDGE_LOOP('',(#191,#192,#193,#194));
#48=EDGE_LOOP('',(#195));
#49=CIRCLE('',#225,8.25);
#50=CIRCLE('',#226,8.25);
#51=CIRCLE('',#228,8.25);
#52=CIRCLE('',#230,32.5);
#53=CIRCLE('',#232,8.25);
#54=CIRCLE('',#235,32.5);
#55=LINE('',#302,#76);
#56=LINE('',#306,#77);
#57=LINE('',#310,#78);
#58=LINE('',#314,#79);
#59=LINE('',#316,#80);
#60=LINE('',#318,#81);
#61=LINE('',#320,#82);
#62=LINE('',#321,#83);
#63=LINE('',#324,#84);
#64=LINE('',#325,#85);
#65=LINE('',#331,#86);
#66=LINE('',#334,#87);
#67=LINE('',#335,#88);
#68=LINE('',#338,#89);
#69=LINE('',#342,#90);
#70=LINE('',#343,#91);
#71=LINE('',#346,#92);
#72=LINE('',#348,#93);
#73=LINE('',#349,#94);
#74=LINE('',#351,#95);
#75=LINE('',#352,#96);
#76=VECTOR('',#245,10.);
#77=VECTOR('',#248,10.);
#78=VECTOR('',#253,10.);
#79=VECTOR('',#256,10.);
#80=VECTOR('',#257,10.);
#81=VECTOR('',#258,10.);
#82=VECTOR('',#259,10.);
#83=VECTOR('',#260,10.);
#84=VECTOR('',#263,10.);
#85=VECTOR('',#264,10.);
#86=VECTOR('',#271,10.);
#87=VECTOR('',#274,10.);
#88=VECTOR('',#275,10.);
#89=VECTOR('',#278,32.5);
#90=VECTOR('',#283,10.);
#91=VECTOR('',#284,10.);
#92=VECTOR('',#287,10.);
#93=VECTOR('',#288,10.);
#94=VECTOR('',#289,10.);
#95=VECTOR('',#292,10.);
#96=VECTOR('',#293,10.);
#97=VERTEX_POINT('',#300);
#98=VERTEX_POINT('',#301);
#99=VERTEX_POINT('',#303);
#100=VERTEX_POINT('',#305);
#101=VERTEX_POINT('',#309);
#102=VERTEX_POINT('',#311);
#103=VERTEX_POINT('',#313);
#104=VERTEX_POINT('',#315);
#105=VERTEX_POINT('',#317);
#106=VERTEX_POINT('',#319);
#107=VERTEX_POINT('',#323);
#108=VERTEX_POINT('',#326);
#109=VERTEX_POINT('',#329);
#110=VERTEX_POINT('',#333);
#111=VERTEX_POINT('',#337);
#112=VERTEX_POINT('',#341);
#113=VERTEX_POINT('',#345);
#114=VERTEX_POINT('',#347);
#115=EDGE_CURVE('',#97,#98,#55,.T.);
#116=EDGE_CURVE('',#99,#97,#49,.T.);
#117=EDGE_CURVE('',#100,#99,#56,.T.);
#118=EDGE_CURVE('',#98,#100,#50,.T.);
#119=EDGE_CURVE('',#101,#100,#57,.T.);
#120=EDGE_CURVE('',#101,#102,#51,.T.);
#121=EDGE_CURVE('',#103,#102,#58,.T.);
#122=EDGE_CURVE('',#104,#103,#59,.T.);
#123=EDGE_CURVE('',#105,#104,#60,.T.);
#124=EDGE_CURVE('',#105,#106,#61,.T.);
#125=EDGE_CURVE('',#98,#106,#62,.T.);
#126=EDGE_CURVE('',#99,#107,#63,.T.);
#127=EDGE_CURVE('',#107,#101,#64,.T.);
#128=EDGE_CURVE('',#108,#108,#52,.T.);
#129=EDGE_CURVE('',#109,#107,#53,.T.);
#130=EDGE_CURVE('',#102,#109,#65,.T.);
#131=EDGE_CURVE('',#109,#110,#66,.T.);
#132=EDGE_CURVE('',#110,#103,#67,.T.);
#133=EDGE_CURVE('',#108,#111,#68,.T.);
#134=EDGE_CURVE('',#111,#111,#54,.T.);
#135=EDGE_CURVE('',#104,#112,#69,.T.);
#136=EDGE_CURVE('',#112,#110,#70,.T.);
#137=EDGE_CURVE('',#113,#97,#71,.T.);
#138=EDGE_CURVE('',#114,#113,#72,.T.);
#139=EDGE_CURVE('',#112,#114,#73,.T.);
#140=EDGE_CURVE('',#114,#105,#74,.T.);
#141=EDGE_CURVE('',#106,#113,#75,.T.);
#142=ORIENTED_EDGE('',*,*,#115,.F.);
#143=ORIENTED_EDGE('',*,*,#116,.F.);
#144=ORIENTED_EDGE('',*,*,#117,.F.);
#145=ORIENTED_EDGE('',*,*,#118,.F.);
#146=ORIENTED_EDGE('',*,*,#118,.T.);
#147=ORIENTED_EDGE('',*,*,#119,.F.);
#148=ORIENTED_EDGE('',*,*,#120,.T.);
#149=ORIENTED_EDGE('',*,*,#121,.F.);
#150=ORIENTED_EDGE('',*,*,#122,.F.);
#151=ORIENTED_EDGE('',*,*,#123,.F.);
#152=ORIENTED_EDGE('',*,*,#124,.T.);
#153=ORIENTED_EDGE('',*,*,#125,.F.);
#154=ORIENTED_EDGE('',*,*,#117,.T.);
#155=ORIENTED_EDGE('',*,*,#126,.T.);
#156=ORIENTED_EDGE('',*,*,#127,.T.);
#157=ORIENTED_EDGE('',*,*,#119,.T.);
#158=ORIENTED_EDGE('',*,*,#128,.T.);
#159=ORIENTED_EDGE('',*,*,#129,.F.);
#160=ORIENTED_EDGE('',*,*,#130,.F.);
#161=ORIENTED_EDGE('',*,*,#120,.F.);
#162=ORIENTED_EDGE('',*,*,#127,.F.);
#163=ORIENTED_EDGE('',*,*,#130,.T.);
#164=ORIENTED_EDGE('',*,*,#131,.T.);
#165=ORIENTED_EDGE('',*,*,#132,.T.);
#166=ORIENTED_EDGE('',*,*,#121,.T.);
#167=ORIENTED_EDGE('',*,*,#128,.F.);
#168=ORIENTED_EDGE('',*,*,#133,.T.);
#169=ORIENTED_EDGE('',*,*,#134,.F.);
#170=ORIENTED_EDGE('',*,*,#133,.F.);
#171=ORIENTED_EDGE('',*,*,#135,.F.);
#172=ORIENTED_EDGE('',*,*,#122,.T.);
#173=ORIENTED_EDGE('',*,*,#132,.F.);
#174=ORIENTED_EDGE('',*,*,#136,.F.);
#175=ORIENTED_EDGE('',*,*,#116,.T.);
#176=ORIENTED_EDGE('',*,*,#137,.F.);
#177=ORIENTED_EDGE('',*,*,#138,.F.);
#178=ORIENTED_EDGE('',*,*,#139,.F.);
#179=ORIENTED_EDGE('',*,*,#136,.T.);
#180=ORIENTED_EDGE('',*,*,#131,.F.);
#181=ORIENTED_EDGE('',*,*,#129,.T.);
#182=ORIENTED_EDGE('',*,*,#126,.F.);
#183=ORIENTED_EDGE('',*,*,#140,.F.);
#184=ORIENTED_EDGE('',*,*,#138,.T.);
#185=ORIENTED_EDGE('',*,*,#141,.F.);
#186=ORIENTED_EDGE('',*,*,#124,.F.);
#187=ORIENTED_EDGE('',*,*,#115,.T.);
#188=ORIENTED_EDGE('',*,*,#125,.T.);
#189=ORIENTED_EDGE('',*,*,#141,.T.);
#190=ORIENTED_EDGE('',*,*,#137,.T.);
#191=ORIENTED_EDGE('',*,*,#140,.T.);
#192=ORIENTED_EDGE('',*,*,#123,.T.);
#193=ORIENTED_EDGE('',*,*,#135,.T.);
#194=ORIENTED_EDGE('',*,*,#139,.T.);
#195=ORIENTED_EDGE('',*,*,#134,.T.);
#196=CYLINDRICAL_SURFACE('',#224,8.25);
#197=CYLINDRICAL_SURFACE('',#231,8.25);
#198=CYLINDRICAL_SURFACE('',#234,32.5);
#199=ADVANCED_FACE('',(#25),#196,.F.);
#200=ADVANCED_FACE('',(#26),#17,.T.);
#201=ADVANCED_FACE('',(#27,#15),#18,.T.);
#202=ADVANCED_FACE('',(#28),#197,.F.);
#203=ADVANCED_FACE('',(#29),#19,.T.);
#204=ADVANCED_FACE('',(#30),#198,.F.);
#205=ADVANCED_FACE('',(#31),#20,.T.);
#206=ADVANCED_FACE('',(#32),#21,.T.);
#207=ADVANCED_FACE('',(#33),#22,.T.);
#208=ADVANCED_FACE('',(#34),#23,.T.);
#209=ADVANCED_FACE('',(#35,#16),#24,.F.);
#210=CLOSED_SHELL('',(#199,#200,#201,#202,#203,#204,#205,#206,#207,#208,
#209));
#211=DERIVED_UNIT_ELEMENT(#213,1.);
#212=DERIVED_UNIT_ELEMENT(#360,-3.);
#213=(
MASS_UNIT()
NAMED_UNIT(*)
SI_UNIT(.KILO.,.GRAM.)
);
#214=DERIVED_UNIT((#211,#212));
#215=MEASURE_REPRESENTATION_ITEM('density measure',
POSITIVE_RATIO_MEASURE(7850.),#214);
#216=PROPERTY_DEFINITION_REPRESENTATION(#221,#218);
#217=PROPERTY_DEFINITION_REPRESENTATION(#222,#219);
#218=REPRESENTATION('material name',(#220),#357);
#219=REPRESENTATION('density',(#215),#357);
#220=DESCRIPTIVE_REPRESENTATION_ITEM('Acier','Acier');
#221=PROPERTY_DEFINITION('material property','material name',#367);
#222=PROPERTY_DEFINITION('material property','density of part',#367);
#223=AXIS2_PLACEMENT_3D('placement',#298,#241,#242);
#224=AXIS2_PLACEMENT_3D('',#299,#243,#244);
#225=AXIS2_PLACEMENT_3D('',#304,#246,#247);
#226=AXIS2_PLACEMENT_3D('',#307,#249,#250);
#227=AXIS2_PLACEMENT_3D('',#308,#251,#252);
#228=AXIS2_PLACEMENT_3D('',#312,#254,#255);
#229=AXIS2_PLACEMENT_3D('',#322,#261,#262);
#230=AXIS2_PLACEMENT_3D('',#327,#265,#266);
#231=AXIS2_PLACEMENT_3D('',#328,#267,#268);
#232=AXIS2_PLACEMENT_3D('',#330,#269,#270);
#233=AXIS2_PLACEMENT_3D('',#332,#272,#273);
#234=AXIS2_PLACEMENT_3D('',#336,#276,#277);
#235=AXIS2_PLACEMENT_3D('',#339,#279,#280);
#236=AXIS2_PLACEMENT_3D('',#340,#281,#282);
#237=AXIS2_PLACEMENT_3D('',#344,#285,#286);
#238=AXIS2_PLACEMENT_3D('',#350,#290,#291);
#239=AXIS2_PLACEMENT_3D('',#353,#294,#295);
#240=AXIS2_PLACEMENT_3D('',#354,#296,#297);
#241=DIRECTION('axis',(0.,0.,1.));
#242=DIRECTION('refdir',(1.,0.,0.));
#243=DIRECTION('center_axis',(-1.,0.,0.));
#244=DIRECTION('ref_axis',(0.,-1.,0.));
#245=DIRECTION('',(1.,0.,0.));
#246=DIRECTION('center_axis',(1.,0.,0.));
#247=DIRECTION('ref_axis',(0.,-1.,0.));
#248=DIRECTION('',(-1.,0.,0.));
#249=DIRECTION('center_axis',(-1.,0.,0.));
#250=DIRECTION('ref_axis',(0.,-1.,0.));
#251=DIRECTION('center_axis',(1.,0.,0.));
#252=DIRECTION('ref_axis',(0.,1.,0.));
#253=DIRECTION('',(0.,1.,0.));
#254=DIRECTION('center_axis',(-1.,0.,0.));
#255=DIRECTION('ref_axis',(0.,-1.,0.));
#256=DIRECTION('',(0.,1.,0.));
#257=DIRECTION('',(0.,0.,1.));
#258=DIRECTION('',(0.,-1.,0.));
#259=DIRECTION('',(0.,0.,1.));
#260=DIRECTION('',(0.,1.,0.));
#261=DIRECTION('center_axis',(0.,0.,1.));
#262=DIRECTION('ref_axis',(1.,0.,0.));
#263=DIRECTION('',(0.,-1.,0.));
#264=DIRECTION('',(1.,0.,0.));
#265=DIRECTION('center_axis',(0.,0.,-1.));
#266=DIRECTION('ref_axis',(-1.,0.,0.));
#267=DIRECTION('center_axis',(-1.,0.,0.));
#268=DIRECTION('ref_axis',(0.,-1.,0.));
#269=DIRECTION('center_axis',(1.,0.,0.));
#270=DIRECTION('ref_axis',(0.,-1.,0.));
#271=DIRECTION('',(-1.,0.,0.));
#272=DIRECTION('center_axis',(0.,0.,1.));
#273=DIRECTION('ref_axis',(1.,0.,0.));
#274=DIRECTION('',(0.,-1.,0.));
#275=DIRECTION('',(1.,0.,0.));
#276=DIRECTION('center_axis',(0.,0.,-1.));
#277=DIRECTION('ref_axis',(-1.,0.,0.));
#278=DIRECTION('',(0.,0.,-1.));
#279=DIRECTION('center_axis',(0.,0.,1.));
#280=DIRECTION('ref_axis',(-1.,0.,0.));
#281=DIRECTION('center_axis',(0.,-1.,0.));
#282=DIRECTION('ref_axis',(1.,0.,0.));
#283=DIRECTION('',(-1.,0.,0.));
#284=DIRECTION('',(0.,0.,1.));
#285=DIRECTION('center_axis',(-1.,0.,0.));
#286=DIRECTION('ref_axis',(0.,-1.,0.));
#287=DIRECTION('',(0.,-1.,0.));
#288=DIRECTION('',(0.,0.,1.));
#289=DIRECTION('',(0.,1.,0.));
#290=DIRECTION('center_axis',(0.,1.,0.));
#291=DIRECTION('ref_axis',(-1.,0.,0.));
#292=DIRECTION('',(1.,0.,0.));
#293=DIRECTION('',(-1.,0.,0.));
#294=DIRECTION('center_axis',(0.,0.,1.));
#295=DIRECTION('ref_axis',(1.,0.,0.));
#296=DIRECTION('center_axis',(0.,0.,1.));
#297=DIRECTION('ref_axis',(1.,0.,0.));
#298=CARTESIAN_POINT('',(0.,0.,0.));
#299=CARTESIAN_POINT('Origin',(62.5,44.25,15.2793330684127));
#300=CARTESIAN_POINT('',(-62.5,52.4952697370608,15.));
#301=CARTESIAN_POINT('',(62.5,52.4952697370608,15.));
#302=CARTESIAN_POINT('',(62.5,52.4952697370608,15.));
#303=CARTESIAN_POINT('',(-62.5,36.0047302629392,15.));
#304=CARTESIAN_POINT('Origin',(-62.5,44.25,15.2793330684127));
#305=CARTESIAN_POINT('',(62.5,36.0047302629392,15.));
#306=CARTESIAN_POINT('',(62.5,36.0047302629392,15.));
#307=CARTESIAN_POINT('Origin',(62.5,44.25,15.2793330684127));
#308=CARTESIAN_POINT('Origin',(62.5,-70.,0.));
#309=CARTESIAN_POINT('',(62.5,-51.0033947953542,15.));
#310=CARTESIAN_POINT('',(62.5,70.,15.));
#311=CARTESIAN_POINT('',(62.5,-67.4966052046458,15.));
#312=CARTESIAN_POINT('Origin',(62.5,-59.25,15.2366486820362));
#313=CARTESIAN_POINT('',(62.5,-70.,15.));
#314=CARTESIAN_POINT('',(62.5,70.,15.));
#315=CARTESIAN_POINT('',(62.5,-70.,0.));
#316=CARTESIAN_POINT('',(62.5,-70.,0.));
#317=CARTESIAN_POINT('',(62.5,70.,0.));
#318=CARTESIAN_POINT('',(62.5,70.,0.));
#319=CARTESIAN_POINT('',(62.5,70.,15.));
#320=CARTESIAN_POINT('',(62.5,70.,0.));
#321=CARTESIAN_POINT('',(62.5,70.,15.));
#322=CARTESIAN_POINT('Origin',(0.,0.,15.));
#323=CARTESIAN_POINT('',(-62.5,-51.0033947953542,15.));
#324=CARTESIAN_POINT('',(-62.5,-70.,15.));
#325=CARTESIAN_POINT('',(62.5,-51.0033947953542,15.));
#326=CARTESIAN_POINT('',(32.4949985154672,-7.4949986935826,15.));
#327=CARTESIAN_POINT('Origin',(-0.00500148453284055,-7.4949986935826,15.));
#328=CARTESIAN_POINT('Origin',(62.5,-59.25,15.2366486820362));
#329=CARTESIAN_POINT('',(-62.5,-67.4966052046458,15.));
#330=CARTESIAN_POINT('Origin',(-62.5,-59.25,15.2366486820362));
#331=CARTESIAN_POINT('',(62.5,-67.4966052046458,15.));
#332=CARTESIAN_POINT('Origin',(0.,0.,15.));
#333=CARTESIAN_POINT('',(-62.5,-70.,15.));
#334=CARTESIAN_POINT('',(-62.5,-70.,15.));
#335=CARTESIAN_POINT('',(62.5,-70.,15.));
#336=CARTESIAN_POINT('Origin',(-0.00500148453284055,-7.4949986935826,15.));
#337=CARTESIAN_POINT('',(32.4949985154672,-7.4949986935826,0.));
#338=CARTESIAN_POINT('',(32.4949985154672,-7.49499869358261,15.));
#339=CARTESIAN_POINT('Origin',(-0.00500148453284055,-7.4949986935826,0.));
#340=CARTESIAN_POINT('Origin',(-62.5,-70.,0.));
#341=CARTESIAN_POINT('',(-62.5,-70.,0.));
#342=CARTESIAN_POINT('',(62.5,-70.,0.));
#343=CARTESIAN_POINT('',(-62.5,-70.,0.));
#344=CARTESIAN_POINT('Origin',(-62.5,70.,0.));
#345=CARTESIAN_POINT('',(-62.5,70.,15.));
#346=CARTESIAN_POINT('',(-62.5,-70.,15.));
#347=CARTESIAN_POINT('',(-62.5,70.,0.));
#348=CARTESIAN_POINT('',(-62.5,70.,0.));
#349=CARTESIAN_POINT('',(-62.5,-70.,0.));
#350=CARTESIAN_POINT('Origin',(62.5,70.,0.));
#351=CARTESIAN_POINT('',(-62.5,70.,0.));
#352=CARTESIAN_POINT('',(-62.5,70.,15.));
#353=CARTESIAN_POINT('Origin',(0.,0.,15.));
#354=CARTESIAN_POINT('Origin',(0.,0.,0.));
#355=UNCERTAINTY_MEASURE_WITH_UNIT(LENGTH_MEASURE(0.01),#359,
'DISTANCE_ACCURACY_VALUE',
'Maximum model space distance between geometric entities at asserted c
onnectivities');
#356=UNCERTAINTY_MEASURE_WITH_UNIT(LENGTH_MEASURE(0.01),#359,
'DISTANCE_ACCURACY_VALUE',
'Maximum model space distance between geometric entities at asserted c
onnectivities');
#357=(
GEOMETRIC_REPRESENTATION_CONTEXT(3)
GLOBAL_UNCERTAINTY_ASSIGNED_CONTEXT((#355))
GLOBAL_UNIT_ASSIGNED_CONTEXT((#359,#361,#362))
REPRESENTATION_CONTEXT('','3D')
);
#358=(
GEOMETRIC_REPRESENTATION_CONTEXT(3)
GLOBAL_UNCERTAINTY_ASSIGNED_CONTEXT((#356))
GLOBAL_UNIT_ASSIGNED_CONTEXT((#359,#361,#362))
REPRESENTATION_CONTEXT('','3D')
);
#359=(
LENGTH_UNIT()
NAMED_UNIT(*)
SI_UNIT(.MILLI.,.METRE.)
);
#360=(
LENGTH_UNIT()
NAMED_UNIT(*)
SI_UNIT($,.METRE.)
);
#361=(
NAMED_UNIT(*)
PLANE_ANGLE_UNIT()
SI_UNIT($,.RADIAN.)
);
#362=(
NAMED_UNIT(*)
SI_UNIT($,.STERADIAN.)
SOLID_ANGLE_UNIT()
);
#363=SHAPE_DEFINITION_REPRESENTATION(#364,#365);
#364=PRODUCT_DEFINITION_SHAPE('',$,#367);
#365=SHAPE_REPRESENTATION('',(#223),#357);
#366=PRODUCT_DEFINITION_CONTEXT('part definition',#371,'design');
#367=PRODUCT_DEFINITION('supportpo','supportpo v1',#368,#366);
#368=PRODUCT_DEFINITION_FORMATION('',$,#373);
#369=PRODUCT_RELATED_PRODUCT_CATEGORY('supportpo v1','supportpo v1',(#373));
#370=APPLICATION_PROTOCOL_DEFINITION('international standard',
'automotive_design',2009,#371);
#371=APPLICATION_CONTEXT(
'Core Data for Automotive Mechanical Design Process');
#372=PRODUCT_CONTEXT('part definition',#371,'mechanical');
#373=PRODUCT('supportpo','supportpo v1',$,(#372));
#374=PRESENTATION_STYLE_ASSIGNMENT((#375));
#375=SURFACE_STYLE_USAGE(.BOTH.,#376);
#376=SURFACE_SIDE_STYLE('',(#377));
#377=SURFACE_STYLE_FILL_AREA(#378);
#378=FILL_AREA_STYLE('Acier - Satin\X\E9',(#379));
#379=FILL_AREA_STYLE_COLOUR('Acier - Satin\X\E9',#380);
#380=COLOUR_RGB('Acier - Satin\X\E9',0.627450980392157,0.627450980392157,
0.627450980392157);
ENDSEC;
END-ISO-10303-21;
