ISO-10303-21;
HEADER;
/* Generated by software containing ST-Developer
 * from STEP Tools, Inc. (www.steptools.com) 
 */

FILE_DESCRIPTION(
/* description */ (''),
/* implementation_level */ '2;1');

FILE_NAME(
/* name */ 
'D:/Fus\X\E9es de mod\X\E9lisme/Projet MK/MK III (motor DIY)/fusion 36
0/tuy\X\E8re v8.step',
/* time_stamp */ '2022-02-02T08:39:06+01:00',
/* author */ (''),
/* organization */ (''),
/* preprocessor_version */ 'ST-DEVELOPER v18.1',
/* originating_system */ 'Autodesk Translation Framework v10.13.0.1454',

/* authorisation */ '');

FILE_SCHEMA (('AUTOMOTIVE_DESIGN { 1 0 10303 214 3 1 1 }'));
ENDSEC;

DATA;
#10=MECHANICAL_DESIGN_GEOMETRIC_PRESENTATION_REPRESENTATION('',(#13),#526);
#11=SHAPE_REPRESENTATION_RELATIONSHIP('SRR','None',#533,#12);
#12=ADVANCED_BREP_SHAPE_REPRESENTATION('',(#14),#525);
#13=STYLED_ITEM('',(#542),#14);
#14=MANIFOLD_SOLID_BREP('Corps1',#286);
#15=CYLINDRICAL_SURFACE('',#314,8.7);
#16=CYLINDRICAL_SURFACE('',#320,12.65);
#17=CYLINDRICAL_SURFACE('',#325,11.);
#18=CYLINDRICAL_SURFACE('',#335,12.65);
#19=CYLINDRICAL_SURFACE('',#342,10.6);
#20=FACE_BOUND('',#91,.T.);
#21=FACE_BOUND('',#95,.T.);
#22=FACE_BOUND('',#100,.T.);
#23=FACE_BOUND('',#103,.T.);
#24=FACE_BOUND('',#107,.T.);
#25=FACE_BOUND('',#110,.T.);
#26=PLANE('',#313);
#27=PLANE('',#319);
#28=PLANE('',#327);
#29=PLANE('',#330);
#30=PLANE('',#337);
#31=PLANE('',#341);
#32=LINE('',#458,#45);
#33=LINE('',#462,#46);
#34=LINE('',#467,#47);
#35=LINE('',#472,#48);
#36=LINE('',#478,#49);
#37=LINE('',#483,#50);
#38=LINE('',#489,#51);
#39=LINE('',#493,#52);
#40=LINE('',#498,#53);
#41=LINE('',#507,#54);
#42=LINE('',#511,#55);
#43=LINE('',#518,#56);
#44=LINE('',#522,#57);
#45=VECTOR('',#361,7.4);
#46=VECTOR('',#366,5.65);
#47=VECTOR('',#371,8.55);
#48=VECTOR('',#378,8.7);
#49=VECTOR('',#385,12.5);
#50=VECTOR('',#392,12.65);
#51=VECTOR('',#399,10.85);
#52=VECTOR('',#404,11.);
#53=VECTOR('',#411,12.55);
#54=VECTOR('',#422,12.55);
#55=VECTOR('',#427,12.65);
#56=VECTOR('',#436,12.5);
#57=VECTOR('',#443,10.6);
#58=CONICAL_SURFACE('',#306,7.4,0.959931088596881);
#59=CONICAL_SURFACE('',#308,5.65,0.296705972839036);
#60=CONICAL_SURFACE('',#310,8.55,0.785398163397448);
#61=CONICAL_SURFACE('',#316,12.5,0.785398163397448);
#62=CONICAL_SURFACE('',#322,10.85,0.785398163397449);
#63=CONICAL_SURFACE('',#328,12.55,0.785398163397448);
#64=CONICAL_SURFACE('',#332,12.55,0.785398163397448);
#65=CONICAL_SURFACE('',#339,12.5,0.785398163397449);
#66=FACE_OUTER_BOUND('',#86,.T.);
#67=FACE_OUTER_BOUND('',#87,.T.);
#68=FACE_OUTER_BOUND('',#88,.T.);
#69=FACE_OUTER_BOUND('',#89,.T.);
#70=FACE_OUTER_BOUND('',#90,.T.);
#71=FACE_OUTER_BOUND('',#92,.T.);
#72=FACE_OUTER_BOUND('',#93,.T.);
#73=FACE_OUTER_BOUND('',#94,.T.);
#74=FACE_OUTER_BOUND('',#96,.T.);
#75=FACE_OUTER_BOUND('',#97,.T.);
#76=FACE_OUTER_BOUND('',#98,.T.);
#77=FACE_OUTER_BOUND('',#99,.T.);
#78=FACE_OUTER_BOUND('',#101,.T.);
#79=FACE_OUTER_BOUND('',#102,.T.);
#80=FACE_OUTER_BOUND('',#104,.T.);
#81=FACE_OUTER_BOUND('',#105,.T.);
#82=FACE_OUTER_BOUND('',#106,.T.);
#83=FACE_OUTER_BOUND('',#108,.T.);
#84=FACE_OUTER_BOUND('',#109,.T.);
#85=FACE_OUTER_BOUND('',#111,.T.);
#86=EDGE_LOOP('',(#193,#194,#195,#196,#197,#198));
#87=EDGE_LOOP('',(#199,#200,#201,#202,#203));
#88=EDGE_LOOP('',(#204,#205,#206,#207,#208));
#89=EDGE_LOOP('',(#209,#210,#211,#212));
#90=EDGE_LOOP('',(#213));
#91=EDGE_LOOP('',(#214));
#92=EDGE_LOOP('',(#215,#216,#217,#218));
#93=EDGE_LOOP('',(#219,#220,#221,#222));
#94=EDGE_LOOP('',(#223));
#95=EDGE_LOOP('',(#224));
#96=EDGE_LOOP('',(#225,#226,#227,#228));
#97=EDGE_LOOP('',(#229,#230,#231,#232));
#98=EDGE_LOOP('',(#233,#234,#235,#236));
#99=EDGE_LOOP('',(#237));
#100=EDGE_LOOP('',(#238));
#101=EDGE_LOOP('',(#239,#240,#241,#242));
#102=EDGE_LOOP('',(#243));
#103=EDGE_LOOP('',(#244));
#104=EDGE_LOOP('',(#245,#246,#247,#248));
#105=EDGE_LOOP('',(#249,#250,#251,#252));
#106=EDGE_LOOP('',(#253));
#107=EDGE_LOOP('',(#254));
#108=EDGE_LOOP('',(#255,#256,#257,#258));
#109=EDGE_LOOP('',(#259));
#110=EDGE_LOOP('',(#260));
#111=EDGE_LOOP('',(#261,#262,#263,#264));
#112=CIRCLE('',#301,4.39091462780409);
#113=CIRCLE('',#302,4.39091462780409);
#114=CIRCLE('',#303,2.291);
#115=CIRCLE('',#304,3.51408404757302);
#116=CIRCLE('',#305,3.51408404757302);
#117=CIRCLE('',#307,11.4);
#118=CIRCLE('',#309,7.9);
#119=CIRCLE('',#311,8.4);
#120=CIRCLE('',#312,8.7);
#121=CIRCLE('',#315,8.7);
#122=CIRCLE('',#317,12.35);
#123=CIRCLE('',#318,12.65);
#124=CIRCLE('',#321,12.65);
#125=CIRCLE('',#323,10.7);
#126=CIRCLE('',#324,11.);
#127=CIRCLE('',#326,11.);
#128=CIRCLE('',#329,12.45);
#129=CIRCLE('',#331,10.6);
#130=CIRCLE('',#333,12.65);
#131=CIRCLE('',#334,12.45);
#132=CIRCLE('',#336,12.65);
#133=CIRCLE('',#338,10.6);
#134=CIRCLE('',#340,12.35);
#135=VERTEX_POINT('',#446);
#136=VERTEX_POINT('',#447);
#137=VERTEX_POINT('',#450);
#138=VERTEX_POINT('',#452);
#139=VERTEX_POINT('',#456);
#140=VERTEX_POINT('',#460);
#141=VERTEX_POINT('',#464);
#142=VERTEX_POINT('',#466);
#143=VERTEX_POINT('',#471);
#144=VERTEX_POINT('',#475);
#145=VERTEX_POINT('',#477);
#146=VERTEX_POINT('',#482);
#147=VERTEX_POINT('',#486);
#148=VERTEX_POINT('',#488);
#149=VERTEX_POINT('',#492);
#150=VERTEX_POINT('',#497);
#151=VERTEX_POINT('',#501);
#152=VERTEX_POINT('',#504);
#153=VERTEX_POINT('',#506);
#154=VERTEX_POINT('',#510);
#155=VERTEX_POINT('',#514);
#156=VERTEX_POINT('',#517);
#157=EDGE_CURVE('',#135,#136,#112,.T.);
#158=EDGE_CURVE('',#136,#135,#113,.T.);
#159=EDGE_CURVE('',#135,#137,#114,.T.);
#160=EDGE_CURVE('',#137,#138,#115,.T.);
#161=EDGE_CURVE('',#138,#137,#116,.T.);
#162=EDGE_CURVE('',#139,#139,#117,.T.);
#163=EDGE_CURVE('',#139,#136,#32,.T.);
#164=EDGE_CURVE('',#140,#140,#118,.T.);
#165=EDGE_CURVE('',#140,#138,#33,.T.);
#166=EDGE_CURVE('',#141,#141,#119,.T.);
#167=EDGE_CURVE('',#141,#142,#34,.T.);
#168=EDGE_CURVE('',#142,#142,#120,.T.);
#169=EDGE_CURVE('',#142,#143,#35,.T.);
#170=EDGE_CURVE('',#143,#143,#121,.T.);
#171=EDGE_CURVE('',#144,#144,#122,.T.);
#172=EDGE_CURVE('',#144,#145,#36,.T.);
#173=EDGE_CURVE('',#145,#145,#123,.T.);
#174=EDGE_CURVE('',#145,#146,#37,.T.);
#175=EDGE_CURVE('',#146,#146,#124,.T.);
#176=EDGE_CURVE('',#147,#147,#125,.T.);
#177=EDGE_CURVE('',#147,#148,#38,.T.);
#178=EDGE_CURVE('',#148,#148,#126,.T.);
#179=EDGE_CURVE('',#148,#149,#39,.T.);
#180=EDGE_CURVE('',#149,#149,#127,.T.);
#181=EDGE_CURVE('',#146,#150,#40,.T.);
#182=EDGE_CURVE('',#150,#150,#128,.T.);
#183=EDGE_CURVE('',#151,#151,#129,.T.);
#184=EDGE_CURVE('',#152,#152,#130,.T.);
#185=EDGE_CURVE('',#152,#153,#41,.T.);
#186=EDGE_CURVE('',#153,#153,#131,.T.);
#187=EDGE_CURVE('',#152,#154,#42,.T.);
#188=EDGE_CURVE('',#154,#154,#132,.T.);
#189=EDGE_CURVE('',#155,#155,#133,.T.);
#190=EDGE_CURVE('',#154,#156,#43,.T.);
#191=EDGE_CURVE('',#156,#156,#134,.T.);
#192=EDGE_CURVE('',#155,#151,#44,.T.);
#193=ORIENTED_EDGE('',*,*,#157,.T.);
#194=ORIENTED_EDGE('',*,*,#158,.T.);
#195=ORIENTED_EDGE('',*,*,#159,.T.);
#196=ORIENTED_EDGE('',*,*,#160,.T.);
#197=ORIENTED_EDGE('',*,*,#161,.T.);
#198=ORIENTED_EDGE('',*,*,#159,.F.);
#199=ORIENTED_EDGE('',*,*,#162,.T.);
#200=ORIENTED_EDGE('',*,*,#163,.T.);
#201=ORIENTED_EDGE('',*,*,#157,.F.);
#202=ORIENTED_EDGE('',*,*,#158,.F.);
#203=ORIENTED_EDGE('',*,*,#163,.F.);
#204=ORIENTED_EDGE('',*,*,#164,.T.);
#205=ORIENTED_EDGE('',*,*,#165,.T.);
#206=ORIENTED_EDGE('',*,*,#160,.F.);
#207=ORIENTED_EDGE('',*,*,#161,.F.);
#208=ORIENTED_EDGE('',*,*,#165,.F.);
#209=ORIENTED_EDGE('',*,*,#166,.T.);
#210=ORIENTED_EDGE('',*,*,#167,.T.);
#211=ORIENTED_EDGE('',*,*,#168,.T.);
#212=ORIENTED_EDGE('',*,*,#167,.F.);
#213=ORIENTED_EDGE('',*,*,#166,.F.);
#214=ORIENTED_EDGE('',*,*,#164,.F.);
#215=ORIENTED_EDGE('',*,*,#168,.F.);
#216=ORIENTED_EDGE('',*,*,#169,.T.);
#217=ORIENTED_EDGE('',*,*,#170,.T.);
#218=ORIENTED_EDGE('',*,*,#169,.F.);
#219=ORIENTED_EDGE('',*,*,#171,.T.);
#220=ORIENTED_EDGE('',*,*,#172,.T.);
#221=ORIENTED_EDGE('',*,*,#173,.T.);
#222=ORIENTED_EDGE('',*,*,#172,.F.);
#223=ORIENTED_EDGE('',*,*,#171,.F.);
#224=ORIENTED_EDGE('',*,*,#162,.F.);
#225=ORIENTED_EDGE('',*,*,#173,.F.);
#226=ORIENTED_EDGE('',*,*,#174,.T.);
#227=ORIENTED_EDGE('',*,*,#175,.F.);
#228=ORIENTED_EDGE('',*,*,#174,.F.);
#229=ORIENTED_EDGE('',*,*,#176,.T.);
#230=ORIENTED_EDGE('',*,*,#177,.T.);
#231=ORIENTED_EDGE('',*,*,#178,.T.);
#232=ORIENTED_EDGE('',*,*,#177,.F.);
#233=ORIENTED_EDGE('',*,*,#178,.F.);
#234=ORIENTED_EDGE('',*,*,#179,.T.);
#235=ORIENTED_EDGE('',*,*,#180,.F.);
#236=ORIENTED_EDGE('',*,*,#179,.F.);
#237=ORIENTED_EDGE('',*,*,#176,.F.);
#238=ORIENTED_EDGE('',*,*,#170,.F.);
#239=ORIENTED_EDGE('',*,*,#175,.T.);
#240=ORIENTED_EDGE('',*,*,#181,.T.);
#241=ORIENTED_EDGE('',*,*,#182,.T.);
#242=ORIENTED_EDGE('',*,*,#181,.F.);
#243=ORIENTED_EDGE('',*,*,#182,.F.);
#244=ORIENTED_EDGE('',*,*,#183,.F.);
#245=ORIENTED_EDGE('',*,*,#184,.T.);
#246=ORIENTED_EDGE('',*,*,#185,.T.);
#247=ORIENTED_EDGE('',*,*,#186,.T.);
#248=ORIENTED_EDGE('',*,*,#185,.F.);
#249=ORIENTED_EDGE('',*,*,#184,.F.);
#250=ORIENTED_EDGE('',*,*,#187,.T.);
#251=ORIENTED_EDGE('',*,*,#188,.F.);
#252=ORIENTED_EDGE('',*,*,#187,.F.);
#253=ORIENTED_EDGE('',*,*,#186,.F.);
#254=ORIENTED_EDGE('',*,*,#189,.T.);
#255=ORIENTED_EDGE('',*,*,#188,.T.);
#256=ORIENTED_EDGE('',*,*,#190,.T.);
#257=ORIENTED_EDGE('',*,*,#191,.T.);
#258=ORIENTED_EDGE('',*,*,#190,.F.);
#259=ORIENTED_EDGE('',*,*,#191,.F.);
#260=ORIENTED_EDGE('',*,*,#180,.T.);
#261=ORIENTED_EDGE('',*,*,#189,.F.);
#262=ORIENTED_EDGE('',*,*,#192,.T.);
#263=ORIENTED_EDGE('',*,*,#183,.T.);
#264=ORIENTED_EDGE('',*,*,#192,.F.);
#265=TOROIDAL_SURFACE('',#300,5.70497824348434,2.291);
#266=ADVANCED_FACE('',(#66),#265,.T.);
#267=ADVANCED_FACE('',(#67),#58,.F.);
#268=ADVANCED_FACE('',(#68),#59,.F.);
#269=ADVANCED_FACE('',(#69),#60,.T.);
#270=ADVANCED_FACE('',(#70,#20),#26,.T.);
#271=ADVANCED_FACE('',(#71),#15,.T.);
#272=ADVANCED_FACE('',(#72),#61,.T.);
#273=ADVANCED_FACE('',(#73,#21),#27,.T.);
#274=ADVANCED_FACE('',(#74),#16,.T.);
#275=ADVANCED_FACE('',(#75),#62,.T.);
#276=ADVANCED_FACE('',(#76),#17,.T.);
#277=ADVANCED_FACE('',(#77,#22),#28,.T.);
#278=ADVANCED_FACE('',(#78),#63,.T.);
#279=ADVANCED_FACE('',(#79,#23),#29,.F.);
#280=ADVANCED_FACE('',(#80),#64,.T.);
#281=ADVANCED_FACE('',(#81),#18,.T.);
#282=ADVANCED_FACE('',(#82,#24),#30,.T.);
#283=ADVANCED_FACE('',(#83),#65,.T.);
#284=ADVANCED_FACE('',(#84,#25),#31,.F.);
#285=ADVANCED_FACE('',(#85),#19,.T.);
#286=CLOSED_SHELL('',(#266,#267,#268,#269,#270,#271,#272,#273,#274,#275,
#276,#277,#278,#279,#280,#281,#282,#283,#284,#285));
#287=DERIVED_UNIT_ELEMENT(#289,1.);
#288=DERIVED_UNIT_ELEMENT(#528,-3.);
#289=(
MASS_UNIT()
NAMED_UNIT(*)
SI_UNIT(.KILO.,.GRAM.)
);
#290=DERIVED_UNIT((#287,#288));
#291=MEASURE_REPRESENTATION_ITEM('density measure',
POSITIVE_RATIO_MEASURE(7850.),#290);
#292=PROPERTY_DEFINITION_REPRESENTATION(#297,#294);
#293=PROPERTY_DEFINITION_REPRESENTATION(#298,#295);
#294=REPRESENTATION('material name',(#296),#525);
#295=REPRESENTATION('density',(#291),#525);
#296=DESCRIPTIVE_REPRESENTATION_ITEM('Acier','Acier');
#297=PROPERTY_DEFINITION('material property','material name',#535);
#298=PROPERTY_DEFINITION('material property','density of part',#535);
#299=AXIS2_PLACEMENT_3D('placement',#444,#343,#344);
#300=AXIS2_PLACEMENT_3D('',#445,#345,#346);
#301=AXIS2_PLACEMENT_3D('',#448,#347,#348);
#302=AXIS2_PLACEMENT_3D('',#449,#349,#350);
#303=AXIS2_PLACEMENT_3D('',#451,#351,#352);
#304=AXIS2_PLACEMENT_3D('',#453,#353,#354);
#305=AXIS2_PLACEMENT_3D('',#454,#355,#356);
#306=AXIS2_PLACEMENT_3D('',#455,#357,#358);
#307=AXIS2_PLACEMENT_3D('',#457,#359,#360);
#308=AXIS2_PLACEMENT_3D('',#459,#362,#363);
#309=AXIS2_PLACEMENT_3D('',#461,#364,#365);
#310=AXIS2_PLACEMENT_3D('',#463,#367,#368);
#311=AXIS2_PLACEMENT_3D('',#465,#369,#370);
#312=AXIS2_PLACEMENT_3D('',#468,#372,#373);
#313=AXIS2_PLACEMENT_3D('',#469,#374,#375);
#314=AXIS2_PLACEMENT_3D('',#470,#376,#377);
#315=AXIS2_PLACEMENT_3D('',#473,#379,#380);
#316=AXIS2_PLACEMENT_3D('',#474,#381,#382);
#317=AXIS2_PLACEMENT_3D('',#476,#383,#384);
#318=AXIS2_PLACEMENT_3D('',#479,#386,#387);
#319=AXIS2_PLACEMENT_3D('',#480,#388,#389);
#320=AXIS2_PLACEMENT_3D('',#481,#390,#391);
#321=AXIS2_PLACEMENT_3D('',#484,#393,#394);
#322=AXIS2_PLACEMENT_3D('',#485,#395,#396);
#323=AXIS2_PLACEMENT_3D('',#487,#397,#398);
#324=AXIS2_PLACEMENT_3D('',#490,#400,#401);
#325=AXIS2_PLACEMENT_3D('',#491,#402,#403);
#326=AXIS2_PLACEMENT_3D('',#494,#405,#406);
#327=AXIS2_PLACEMENT_3D('',#495,#407,#408);
#328=AXIS2_PLACEMENT_3D('',#496,#409,#410);
#329=AXIS2_PLACEMENT_3D('',#499,#412,#413);
#330=AXIS2_PLACEMENT_3D('',#500,#414,#415);
#331=AXIS2_PLACEMENT_3D('',#502,#416,#417);
#332=AXIS2_PLACEMENT_3D('',#503,#418,#419);
#333=AXIS2_PLACEMENT_3D('',#505,#420,#421);
#334=AXIS2_PLACEMENT_3D('',#508,#423,#424);
#335=AXIS2_PLACEMENT_3D('',#509,#425,#426);
#336=AXIS2_PLACEMENT_3D('',#512,#428,#429);
#337=AXIS2_PLACEMENT_3D('',#513,#430,#431);
#338=AXIS2_PLACEMENT_3D('',#515,#432,#433);
#339=AXIS2_PLACEMENT_3D('',#516,#434,#435);
#340=AXIS2_PLACEMENT_3D('',#519,#437,#438);
#341=AXIS2_PLACEMENT_3D('',#520,#439,#440);
#342=AXIS2_PLACEMENT_3D('',#521,#441,#442);
#343=DIRECTION('axis',(0.,0.,1.));
#344=DIRECTION('refdir',(1.,0.,0.));
#345=DIRECTION('center_axis',(0.,-1.,0.));
#346=DIRECTION('ref_axis',(0.,0.,-1.));
#347=DIRECTION('center_axis',(0.,1.,0.));
#348=DIRECTION('ref_axis',(0.,0.,-1.));
#349=DIRECTION('center_axis',(0.,1.,0.));
#350=DIRECTION('ref_axis',(0.,0.,-1.));
#351=DIRECTION('center_axis',(-1.,0.,1.22464679914735E-16));
#352=DIRECTION('ref_axis',(1.22464679914735E-16,0.,1.));
#353=DIRECTION('center_axis',(0.,-1.,0.));
#354=DIRECTION('ref_axis',(0.,0.,-1.));
#355=DIRECTION('center_axis',(0.,-1.,0.));
#356=DIRECTION('ref_axis',(0.,0.,-1.));
#357=DIRECTION('center_axis',(0.,1.,0.));
#358=DIRECTION('ref_axis',(-1.,0.,0.));
#359=DIRECTION('center_axis',(0.,1.,0.));
#360=DIRECTION('ref_axis',(-1.,0.,0.));
#361=DIRECTION('',(-0.819152044288992,-0.573576436351046,1.00317192905352E-16));
#362=DIRECTION('center_axis',(0.,-1.,0.));
#363=DIRECTION('ref_axis',(-1.,0.,0.));
#364=DIRECTION('center_axis',(0.,-1.,0.));
#365=DIRECTION('ref_axis',(-1.,0.,0.));
#366=DIRECTION('',(-0.292371704722737,0.956304755963035,-3.58052072349955E-17));
#367=DIRECTION('center_axis',(0.,1.,0.));
#368=DIRECTION('ref_axis',(1.,0.,0.));
#369=DIRECTION('center_axis',(0.,1.,0.));
#370=DIRECTION('ref_axis',(1.,0.,0.));
#371=DIRECTION('',(-0.707106781186548,0.707106781186548,-8.65956056235493E-17));
#372=DIRECTION('center_axis',(0.,-1.,0.));
#373=DIRECTION('ref_axis',(1.,0.,0.));
#374=DIRECTION('center_axis',(0.,-1.,0.));
#375=DIRECTION('ref_axis',(1.,0.,0.));
#376=DIRECTION('center_axis',(0.,-1.,0.));
#377=DIRECTION('ref_axis',(1.,0.,0.));
#378=DIRECTION('',(0.,1.,0.));
#379=DIRECTION('center_axis',(0.,-1.,0.));
#380=DIRECTION('ref_axis',(1.,0.,0.));
#381=DIRECTION('center_axis',(0.,-1.,0.));
#382=DIRECTION('ref_axis',(1.,0.,0.));
#383=DIRECTION('center_axis',(0.,-1.,0.));
#384=DIRECTION('ref_axis',(1.,0.,0.));
#385=DIRECTION('',(-0.707106781186548,-0.707106781186548,8.65956056235493E-17));
#386=DIRECTION('center_axis',(0.,1.,0.));
#387=DIRECTION('ref_axis',(1.,0.,0.));
#388=DIRECTION('center_axis',(0.,1.,0.));
#389=DIRECTION('ref_axis',(1.,0.,0.));
#390=DIRECTION('center_axis',(0.,1.,0.));
#391=DIRECTION('ref_axis',(1.,0.,0.));
#392=DIRECTION('',(0.,-1.,0.));
#393=DIRECTION('center_axis',(0.,-1.,0.));
#394=DIRECTION('ref_axis',(1.,0.,0.));
#395=DIRECTION('center_axis',(0.,1.,0.));
#396=DIRECTION('ref_axis',(1.,0.,0.));
#397=DIRECTION('center_axis',(0.,1.,0.));
#398=DIRECTION('ref_axis',(1.,0.,0.));
#399=DIRECTION('',(-0.707106781186548,0.707106781186547,-8.65956056235494E-17));
#400=DIRECTION('center_axis',(0.,-1.,0.));
#401=DIRECTION('ref_axis',(1.,0.,0.));
#402=DIRECTION('center_axis',(0.,-1.,0.));
#403=DIRECTION('ref_axis',(1.,0.,0.));
#404=DIRECTION('',(0.,1.,0.));
#405=DIRECTION('center_axis',(0.,1.,0.));
#406=DIRECTION('ref_axis',(1.,0.,0.));
#407=DIRECTION('center_axis',(0.,-1.,0.));
#408=DIRECTION('ref_axis',(1.,0.,0.));
#409=DIRECTION('center_axis',(0.,1.,0.));
#410=DIRECTION('ref_axis',(1.,0.,0.));
#411=DIRECTION('',(0.707106781186548,-0.707106781186548,-8.65956056235493E-17));
#412=DIRECTION('center_axis',(0.,1.,0.));
#413=DIRECTION('ref_axis',(1.,0.,0.));
#414=DIRECTION('center_axis',(0.,1.,0.));
#415=DIRECTION('ref_axis',(1.,0.,0.));
#416=DIRECTION('center_axis',(0.,-1.,0.));
#417=DIRECTION('ref_axis',(1.,0.,0.));
#418=DIRECTION('center_axis',(0.,-1.,0.));
#419=DIRECTION('ref_axis',(1.,0.,0.));
#420=DIRECTION('center_axis',(0.,1.,0.));
#421=DIRECTION('ref_axis',(1.,0.,0.));
#422=DIRECTION('',(0.707106781186548,0.707106781186548,8.65956056235493E-17));
#423=DIRECTION('center_axis',(0.,-1.,0.));
#424=DIRECTION('ref_axis',(1.,0.,0.));
#425=DIRECTION('center_axis',(0.,1.,0.));
#426=DIRECTION('ref_axis',(1.,0.,0.));
#427=DIRECTION('',(0.,-1.,0.));
#428=DIRECTION('center_axis',(0.,-1.,0.));
#429=DIRECTION('ref_axis',(1.,0.,0.));
#430=DIRECTION('center_axis',(0.,1.,0.));
#431=DIRECTION('ref_axis',(1.,0.,0.));
#432=DIRECTION('center_axis',(0.,-1.,0.));
#433=DIRECTION('ref_axis',(1.,0.,0.));
#434=DIRECTION('center_axis',(0.,1.,0.));
#435=DIRECTION('ref_axis',(1.,0.,0.));
#436=DIRECTION('',(0.707106781186548,-0.707106781186547,-8.65956056235494E-17));
#437=DIRECTION('center_axis',(0.,1.,0.));
#438=DIRECTION('ref_axis',(1.,0.,0.));
#439=DIRECTION('center_axis',(0.,1.,0.));
#440=DIRECTION('ref_axis',(1.,0.,0.));
#441=DIRECTION('center_axis',(0.,1.,0.));
#442=DIRECTION('ref_axis',(1.,0.,0.));
#443=DIRECTION('',(0.,1.,0.));
#444=CARTESIAN_POINT('',(0.,0.,0.));
#445=CARTESIAN_POINT('Origin',(0.,1.01550825296693,0.));
#446=CARTESIAN_POINT('',(5.37731954426957E-16,2.89218558643302,4.39091462780409));
#447=CARTESIAN_POINT('',(4.39091462780409,2.89218558643301,-5.37731954426957E-16));
#448=CARTESIAN_POINT('Origin',(0.,2.89218558643302,0.));
#449=CARTESIAN_POINT('Origin',(0.,2.89218558643302,0.));
#450=CARTESIAN_POINT('',(-4.30351178079508E-16,0.345684677447144,3.51408404757302));
#451=CARTESIAN_POINT('Origin',(6.98658334508838E-16,1.01550825296693,5.70497824348434));
#452=CARTESIAN_POINT('',(3.51408404757302,0.345684677447144,4.30351178079508E-16));
#453=CARTESIAN_POINT('Origin',(0.,0.345684677447144,0.));
#454=CARTESIAN_POINT('Origin',(0.,0.345684677447144,0.));
#455=CARTESIAN_POINT('Origin',(0.,4.99916984716116,0.));
#456=CARTESIAN_POINT('',(11.4,7.8,-1.39609735102798E-15));
#457=CARTESIAN_POINT('Origin',(0.,7.8,0.));
#458=CARTESIAN_POINT('',(7.4,4.99916984716116,-9.06238631369041E-16));
#459=CARTESIAN_POINT('Origin',(0.,-6.64058160841068,0.));
#460=CARTESIAN_POINT('',(7.9,-14.,9.67470971326409E-16));
#461=CARTESIAN_POINT('Origin',(0.,-14.,0.));
#462=CARTESIAN_POINT('',(5.65,-6.64058160841068,6.91925441518255E-16));
#463=CARTESIAN_POINT('Origin',(0.,-13.85,0.));
#464=CARTESIAN_POINT('',(-8.4,-14.,1.02870331128378E-15));
#465=CARTESIAN_POINT('Origin',(0.,-14.,0.));
#466=CARTESIAN_POINT('',(-8.7,-13.7,-1.0654427152582E-15));
#467=CARTESIAN_POINT('',(-8.55,-13.85,-1.04707301327099E-15));
#468=CARTESIAN_POINT('Origin',(0.,-13.7,0.));
#469=CARTESIAN_POINT('Origin',(0.,-14.,0.));
#470=CARTESIAN_POINT('Origin',(0.,0.,0.));
#471=CARTESIAN_POINT('',(-8.7,-0.9,-1.0654427152582E-15));
#472=CARTESIAN_POINT('',(-8.7,0.,-1.0654427152582E-15));
#473=CARTESIAN_POINT('Origin',(0.,-0.9,0.));
#474=CARTESIAN_POINT('Origin',(0.,7.65,0.));
#475=CARTESIAN_POINT('',(-12.35,7.8,-1.51243879694698E-15));
#476=CARTESIAN_POINT('Origin',(0.,7.8,0.));
#477=CARTESIAN_POINT('',(-12.65,7.5,1.5491782009214E-15));
#478=CARTESIAN_POINT('',(-12.5,7.65,1.53080849893419E-15));
#479=CARTESIAN_POINT('Origin',(0.,7.5,0.));
#480=CARTESIAN_POINT('Origin',(0.,7.8,0.));
#481=CARTESIAN_POINT('Origin',(0.,0.,0.));
#482=CARTESIAN_POINT('',(-12.65,5.8,-1.5491782009214E-15));
#483=CARTESIAN_POINT('',(-12.65,0.,1.5491782009214E-15));
#484=CARTESIAN_POINT('Origin',(0.,5.8,0.));
#485=CARTESIAN_POINT('Origin',(0.,-0.75,0.));
#486=CARTESIAN_POINT('',(-10.7,-0.9,1.31037207508767E-15));
#487=CARTESIAN_POINT('Origin',(0.,-0.9,0.));
#488=CARTESIAN_POINT('',(-11.,-0.6,-1.34711147906209E-15));
#489=CARTESIAN_POINT('',(-10.85,-0.75,-1.32874177707488E-15));
#490=CARTESIAN_POINT('Origin',(0.,-0.6,0.));
#491=CARTESIAN_POINT('Origin',(0.,0.,0.));
#492=CARTESIAN_POINT('',(-11.,0.,-1.34711147906209E-15));
#493=CARTESIAN_POINT('',(-11.,0.,-1.34711147906209E-15));
#494=CARTESIAN_POINT('Origin',(0.,0.,0.));
#495=CARTESIAN_POINT('Origin',(0.,-0.9,0.));
#496=CARTESIAN_POINT('Origin',(0.,5.7,0.));
#497=CARTESIAN_POINT('',(-12.45,5.6,1.52468526493846E-15));
#498=CARTESIAN_POINT('',(-12.55,5.7,1.53693173292993E-15));
#499=CARTESIAN_POINT('Origin',(0.,5.6,0.));
#500=CARTESIAN_POINT('Origin',(0.,5.6,0.));
#501=CARTESIAN_POINT('',(-10.6,5.6,1.29812560709619E-15));
#502=CARTESIAN_POINT('Origin',(0.,5.6,0.));
#503=CARTESIAN_POINT('Origin',(0.,2.1,0.));
#504=CARTESIAN_POINT('',(-12.65,2.,1.5491782009214E-15));
#505=CARTESIAN_POINT('Origin',(0.,2.,0.));
#506=CARTESIAN_POINT('',(-12.45,2.2,-1.52468526493846E-15));
#507=CARTESIAN_POINT('',(-12.55,2.1,-1.53693173292993E-15));
#508=CARTESIAN_POINT('Origin',(0.,2.2,0.));
#509=CARTESIAN_POINT('Origin',(0.,0.,0.));
#510=CARTESIAN_POINT('',(-12.65,0.3,-1.5491782009214E-15));
#511=CARTESIAN_POINT('',(-12.65,0.,1.5491782009214E-15));
#512=CARTESIAN_POINT('Origin',(0.,0.3,0.));
#513=CARTESIAN_POINT('Origin',(0.,2.2,0.));
#514=CARTESIAN_POINT('',(-10.6,2.2,1.29812560709619E-15));
#515=CARTESIAN_POINT('Origin',(0.,2.2,0.));
#516=CARTESIAN_POINT('Origin',(0.,0.15,0.));
#517=CARTESIAN_POINT('',(-12.35,0.,1.51243879694698E-15));
#518=CARTESIAN_POINT('',(-12.5,0.15,1.53080849893419E-15));
#519=CARTESIAN_POINT('Origin',(0.,0.,0.));
#520=CARTESIAN_POINT('Origin',(0.,0.,0.));
#521=CARTESIAN_POINT('Origin',(0.,2.2,0.));
#522=CARTESIAN_POINT('',(-10.6,2.2,1.29812560709619E-15));
#523=UNCERTAINTY_MEASURE_WITH_UNIT(LENGTH_MEASURE(0.01),#527,
'DISTANCE_ACCURACY_VALUE',
'Maximum model space distance between geometric entities at asserted c
onnectivities');
#524=UNCERTAINTY_MEASURE_WITH_UNIT(LENGTH_MEASURE(0.01),#527,
'DISTANCE_ACCURACY_VALUE',
'Maximum model space distance between geometric entities at asserted c
onnectivities');
#525=(
GEOMETRIC_REPRESENTATION_CONTEXT(3)
GLOBAL_UNCERTAINTY_ASSIGNED_CONTEXT((#523))
GLOBAL_UNIT_ASSIGNED_CONTEXT((#527,#529,#530))
REPRESENTATION_CONTEXT('','3D')
);
#526=(
GEOMETRIC_REPRESENTATION_CONTEXT(3)
GLOBAL_UNCERTAINTY_ASSIGNED_CONTEXT((#524))
GLOBAL_UNIT_ASSIGNED_CONTEXT((#527,#529,#530))
REPRESENTATION_CONTEXT('','3D')
);
#527=(
LENGTH_UNIT()
NAMED_UNIT(*)
SI_UNIT(.MILLI.,.METRE.)
);
#528=(
LENGTH_UNIT()
NAMED_UNIT(*)
SI_UNIT($,.METRE.)
);
#529=(
NAMED_UNIT(*)
PLANE_ANGLE_UNIT()
SI_UNIT($,.RADIAN.)
);
#530=(
NAMED_UNIT(*)
SI_UNIT($,.STERADIAN.)
SOLID_ANGLE_UNIT()
);
#531=SHAPE_DEFINITION_REPRESENTATION(#532,#533);
#532=PRODUCT_DEFINITION_SHAPE('',$,#535);
#533=SHAPE_REPRESENTATION('',(#299),#525);
#534=PRODUCT_DEFINITION_CONTEXT('part definition',#539,'design');
#535=PRODUCT_DEFINITION('tuy\X\E8re','tuy\X\E8re v8',#536,#534);
#536=PRODUCT_DEFINITION_FORMATION('',$,#541);
#537=PRODUCT_RELATED_PRODUCT_CATEGORY('tuy\X\E8re v8','tuy\X\E8re v8',(#541));
#538=APPLICATION_PROTOCOL_DEFINITION('international standard',
'automotive_design',2009,#539);
#539=APPLICATION_CONTEXT(
'Core Data for Automotive Mechanical Design Process');
#540=PRODUCT_CONTEXT('part definition',#539,'mechanical');
#541=PRODUCT('tuy\X\E8re','tuy\X\E8re v8',$,(#540));
#542=PRESENTATION_STYLE_ASSIGNMENT((#543));
#543=SURFACE_STYLE_USAGE(.BOTH.,#544);
#544=SURFACE_SIDE_STYLE('',(#545));
#545=SURFACE_STYLE_FILL_AREA(#546);
#546=FILL_AREA_STYLE('Acier - Satin\X\E9',(#547));
#547=FILL_AREA_STYLE_COLOUR('Acier - Satin\X\E9',#548);
#548=COLOUR_RGB('Acier - Satin\X\E9',0.627450980392157,0.627450980392157,
0.627450980392157);
ENDSEC;
END-ISO-10303-21;
