ISO-10303-21;
HEADER;
FILE_DESCRIPTION(('CATIA V5 STEP Exchange'),'2;1');

FILE_NAME('C:\\Documents and Settings\\ABT Arnaud\\Mes documents\\AERONAUTIQUE\\PROJETS\\DIVERS\\PORTEOUTIL.stp','2022-12-06T20:50:44+00:00',('none'),('none'),'CATIA Version 5 Release 19 GA (IN-10)','CATIA V5 STEP AP203','none');

FILE_SCHEMA(('CONFIG_CONTROL_DESIGN'));

ENDSEC;
/* file written by CATIA V5R19 */
DATA;
#5=PRODUCT('PORTEOUTIL','','',(#2)) ;
#1=APPLICATION_CONTEXT('configuration controlled 3D design of mechanical parts and assemblies') ;
#14=PRODUCT_DEFINITION('',' ',#6,#3) ;
#16=SECURITY_CLASSIFICATION(' ',' ',#15) ;
#15=SECURITY_CLASSIFICATION_LEVEL('unclassified') ;
#47=CARTESIAN_POINT(' ',(0.,0.,0.)) ;
#52=CARTESIAN_POINT('Axis2P3D Location',(0.,-12.,25.5)) ;
#57=CARTESIAN_POINT('Line Origine',(33.5,-18.25,25.5)) ;
#61=CARTESIAN_POINT('Vertex',(33.5,-24.5,25.5)) ;
#63=CARTESIAN_POINT('Vertex',(33.5,-12.,25.5)) ;
#66=CARTESIAN_POINT('Line Origine',(0.,-24.5,25.5)) ;
#70=CARTESIAN_POINT('Vertex',(-33.5,-24.5,25.5)) ;
#73=CARTESIAN_POINT('Line Origine',(-33.5,-18.25,25.5)) ;
#77=CARTESIAN_POINT('Vertex',(-33.5,-12.,25.5)) ;
#80=CARTESIAN_POINT('Line Origine',(0.,-12.,25.5)) ;
#92=CARTESIAN_POINT('Axis2P3D Location',(0.,-24.5,12.)) ;
#97=CARTESIAN_POINT('Line Origine',(0.,3.5527136788E-015,12.)) ;
#101=CARTESIAN_POINT('Vertex',(-8.,3.5527136788E-015,12.)) ;
#103=CARTESIAN_POINT('Vertex',(8.,3.5527136788E-015,12.)) ;
#106=CARTESIAN_POINT('Line Origine',(-10.4537386441,4.25,12.)) ;
#110=CARTESIAN_POINT('Vertex',(-12.9074772881,8.5,12.)) ;
#113=CARTESIAN_POINT('Line Origine',(0.,8.5,12.)) ;
#117=CARTESIAN_POINT('Vertex',(12.9074772881,8.5,12.)) ;
#120=CARTESIAN_POINT('Line Origine',(10.4537386441,4.25,12.)) ;
#132=CARTESIAN_POINT('Axis2P3D Location',(12.9074772881,8.5,0.)) ;
#137=CARTESIAN_POINT('Line Origine',(0.,8.5,42.)) ;
#141=CARTESIAN_POINT('Vertex',(-12.9074772881,8.5,42.)) ;
#143=CARTESIAN_POINT('Vertex',(12.9074772881,8.5,42.)) ;
#146=CARTESIAN_POINT('Line Origine',(12.9074772881,8.5,27.)) ;
#151=CARTESIAN_POINT('Line Origine',(-12.9074772881,8.5,27.)) ;
#163=CARTESIAN_POINT('Axis2P3D Location',(33.5,0.,0.)) ;
#168=CARTESIAN_POINT('Line Origine',(8.,0.,27.)) ;
#172=CARTESIAN_POINT('Vertex',(8.,0.,42.)) ;
#175=CARTESIAN_POINT('Line Origine',(20.75,0.,42.)) ;
#179=CARTESIAN_POINT('Vertex',(33.5,-6.89081056561E-015,42.)) ;
#182=CARTESIAN_POINT('Line Origine',(33.5,0.,21.)) ;
#186=CARTESIAN_POINT('Vertex',(33.5,-6.89081056561E-015,0.)) ;
#189=CARTESIAN_POINT('Line Origine',(0.,0.,0.)) ;
#193=CARTESIAN_POINT('Vertex',(-33.5,-6.89081056561E-015,0.)) ;
#196=CARTESIAN_POINT('Line Origine',(-33.5,0.,21.)) ;
#200=CARTESIAN_POINT('Vertex',(-33.5,-6.89081056561E-015,42.)) ;
#203=CARTESIAN_POINT('Line Origine',(-20.75,0.,42.)) ;
#207=CARTESIAN_POINT('Vertex',(-8.,0.,42.)) ;
#210=CARTESIAN_POINT('Line Origine',(-8.,0.,27.)) ;
#226=CARTESIAN_POINT('Axis2P3D Location',(0.,0.,0.)) ;
#231=CARTESIAN_POINT('Line Origine',(-33.5,-12.25,0.)) ;
#235=CARTESIAN_POINT('Vertex',(-33.5,-24.5,0.)) ;
#238=CARTESIAN_POINT('Line Origine',(33.5,-12.25,0.)) ;
#242=CARTESIAN_POINT('Vertex',(33.5,-24.5,0.)) ;
#245=CARTESIAN_POINT('Line Origine',(0.,-24.5,0.)) ;
#257=CARTESIAN_POINT('Axis2P3D Location',(0.,-24.5,0.)) ;
#262=CARTESIAN_POINT('Line Origine',(33.5,-24.5,6.)) ;
#266=CARTESIAN_POINT('Vertex',(33.5,-24.5,12.)) ;
#269=CARTESIAN_POINT('Line Origine',(0.,-24.5,12.)) ;
#273=CARTESIAN_POINT('Vertex',(-33.5,-24.5,12.)) ;
#276=CARTESIAN_POINT('Line Origine',(-33.5,-24.5,6.)) ;
#288=CARTESIAN_POINT('Axis2P3D Location',(0.,0.,42.)) ;
#293=CARTESIAN_POINT('Line Origine',(0.,-24.5,42.)) ;
#297=CARTESIAN_POINT('Vertex',(33.5,-24.5,42.)) ;
#299=CARTESIAN_POINT('Vertex',(-33.5,-24.5,42.)) ;
#302=CARTESIAN_POINT('Line Origine',(33.5,-12.25,42.)) ;
#307=CARTESIAN_POINT('Line Origine',(10.4537386441,4.25,42.)) ;
#312=CARTESIAN_POINT('Line Origine',(-10.4537386441,4.25,42.)) ;
#317=CARTESIAN_POINT('Line Origine',(-33.5,-12.25,42.)) ;
#333=CARTESIAN_POINT('Line Origine',(33.5,-18.25,12.)) ;
#337=CARTESIAN_POINT('Vertex',(33.5,-12.,12.)) ;
#340=CARTESIAN_POINT('Line Origine',(0.,-12.,12.)) ;
#344=CARTESIAN_POINT('Vertex',(-33.5,-12.,12.)) ;
#347=CARTESIAN_POINT('Line Origine',(-33.5,-18.25,12.)) ;
#359=CARTESIAN_POINT('Line Origine',(33.5,-24.5,33.75)) ;
#364=CARTESIAN_POINT('Line Origine',(-33.5,-24.5,33.75)) ;
#376=CARTESIAN_POINT('Axis2P3D Location',(0.,-12.,25.5)) ;
#381=CARTESIAN_POINT('Line Origine',(-33.5,-12.,18.75)) ;
#386=CARTESIAN_POINT('Line Origine',(33.5,-12.,18.75)) ;
#398=CARTESIAN_POINT('Axis2P3D Location',(33.5,-24.5,0.)) ;
#414=CARTESIAN_POINT('Axis2P3D Location',(8.,-1.7763568394E-015,0.)) ;
#426=CARTESIAN_POINT('Axis2P3D Location',(-33.5,-24.5,0.)) ;
#442=CARTESIAN_POINT('Axis2P3D Location',(-8.,-1.7763568394E-015,0.)) ;
#53=DIRECTION('Axis2P3D Direction',(-0.,0.,1.)) ;
#54=DIRECTION('Axis2P3D XDirection',(0.,-1.,0.)) ;
#58=DIRECTION('Vector Direction',(0.,1.,0.)) ;
#67=DIRECTION('Vector Direction',(1.,0.,0.)) ;
#74=DIRECTION('Vector Direction',(0.,1.,0.)) ;
#81=DIRECTION('Vector Direction',(1.,0.,0.)) ;
#93=DIRECTION('Axis2P3D Direction',(0.,0.,-1.)) ;
#94=DIRECTION('Axis2P3D XDirection',(0.,1.,0.)) ;
#98=DIRECTION('Vector Direction',(-1.,0.,0.)) ;
#107=DIRECTION('Vector Direction',(-0.5,0.866025403784,0.)) ;
#114=DIRECTION('Vector Direction',(-1.,0.,0.)) ;
#121=DIRECTION('Vector Direction',(0.5,0.866025403784,0.)) ;
#133=DIRECTION('Axis2P3D Direction',(0.,1.,-0.)) ;
#134=DIRECTION('Axis2P3D XDirection',(-1.,0.,0.)) ;
#138=DIRECTION('Vector Direction',(-1.,0.,0.)) ;
#147=DIRECTION('Vector Direction',(0.,0.,1.)) ;
#152=DIRECTION('Vector Direction',(0.,0.,1.)) ;
#164=DIRECTION('Axis2P3D Direction',(0.,1.,-0.)) ;
#165=DIRECTION('Axis2P3D XDirection',(-1.,0.,0.)) ;
#169=DIRECTION('Vector Direction',(0.,0.,1.)) ;
#176=DIRECTION('Vector Direction',(-1.,0.,0.)) ;
#183=DIRECTION('Vector Direction',(0.,0.,1.)) ;
#190=DIRECTION('Vector Direction',(-1.,0.,0.)) ;
#197=DIRECTION('Vector Direction',(0.,0.,1.)) ;
#204=DIRECTION('Vector Direction',(-1.,0.,0.)) ;
#211=DIRECTION('Vector Direction',(0.,0.,1.)) ;
#227=DIRECTION('Axis2P3D Direction',(0.,0.,1.)) ;
#228=DIRECTION('Axis2P3D XDirection',(1.,0.,0.)) ;
#232=DIRECTION('Vector Direction',(0.,1.,0.)) ;
#239=DIRECTION('Vector Direction',(0.,1.,0.)) ;
#246=DIRECTION('Vector Direction',(1.,0.,0.)) ;
#258=DIRECTION('Axis2P3D Direction',(0.,-1.,0.)) ;
#259=DIRECTION('Axis2P3D XDirection',(1.,0.,0.)) ;
#263=DIRECTION('Vector Direction',(0.,0.,1.)) ;
#270=DIRECTION('Vector Direction',(1.,0.,0.)) ;
#277=DIRECTION('Vector Direction',(0.,0.,1.)) ;
#289=DIRECTION('Axis2P3D Direction',(0.,0.,1.)) ;
#290=DIRECTION('Axis2P3D XDirection',(1.,0.,0.)) ;
#294=DIRECTION('Vector Direction',(1.,0.,0.)) ;
#303=DIRECTION('Vector Direction',(0.,1.,0.)) ;
#308=DIRECTION('Vector Direction',(0.5,0.866025403784,0.)) ;
#313=DIRECTION('Vector Direction',(-0.5,0.866025403784,0.)) ;
#318=DIRECTION('Vector Direction',(0.,1.,0.)) ;
#334=DIRECTION('Vector Direction',(0.,1.,0.)) ;
#341=DIRECTION('Vector Direction',(1.,0.,0.)) ;
#348=DIRECTION('Vector Direction',(0.,1.,0.)) ;
#360=DIRECTION('Vector Direction',(0.,0.,1.)) ;
#365=DIRECTION('Vector Direction',(0.,0.,1.)) ;
#377=DIRECTION('Axis2P3D Direction',(0.,-1.,0.)) ;
#378=DIRECTION('Axis2P3D XDirection',(0.,0.,-1.)) ;
#382=DIRECTION('Vector Direction',(0.,0.,-1.)) ;
#387=DIRECTION('Vector Direction',(0.,0.,-1.)) ;
#399=DIRECTION('Axis2P3D Direction',(1.,0.,0.)) ;
#400=DIRECTION('Axis2P3D XDirection',(0.,1.,0.)) ;
#415=DIRECTION('Axis2P3D Direction',(0.866025403784,-0.5,0.)) ;
#416=DIRECTION('Axis2P3D XDirection',(0.5,0.866025403784,0.)) ;
#427=DIRECTION('Axis2P3D Direction',(1.,0.,0.)) ;
#428=DIRECTION('Axis2P3D XDirection',(0.,1.,0.)) ;
#443=DIRECTION('Axis2P3D Direction',(0.866025403784,0.5,-0.)) ;
#444=DIRECTION('Axis2P3D XDirection',(-0.5,0.866025403784,0.)) ;
#48=AXIS2_PLACEMENT_3D(' ',#47,$,$) ;
#55=AXIS2_PLACEMENT_3D('Plane Axis2P3D',#52,#53,#54) ;
#95=AXIS2_PLACEMENT_3D('Plane Axis2P3D',#92,#93,#94) ;
#135=AXIS2_PLACEMENT_3D('Plane Axis2P3D',#132,#133,#134) ;
#166=AXIS2_PLACEMENT_3D('Plane Axis2P3D',#163,#164,#165) ;
#229=AXIS2_PLACEMENT_3D('Plane Axis2P3D',#226,#227,#228) ;
#260=AXIS2_PLACEMENT_3D('Plane Axis2P3D',#257,#258,#259) ;
#291=AXIS2_PLACEMENT_3D('Plane Axis2P3D',#288,#289,#290) ;
#379=AXIS2_PLACEMENT_3D('Plane Axis2P3D',#376,#377,#378) ;
#401=AXIS2_PLACEMENT_3D('Plane Axis2P3D',#398,#399,#400) ;
#417=AXIS2_PLACEMENT_3D('Plane Axis2P3D',#414,#415,#416) ;
#429=AXIS2_PLACEMENT_3D('Plane Axis2P3D',#426,#427,#428) ;
#445=AXIS2_PLACEMENT_3D('Plane Axis2P3D',#442,#443,#444) ;
#40=PRODUCT_DEFINITION_SHAPE(' ',' ',#14) ;
#31=APPROVAL_PERSON_ORGANIZATION(#25,#21,#19) ;
#25=PERSON_AND_ORGANIZATION(#22,#23) ;
#22=PERSON(' ',' ',' ',$,$,$) ;
#23=ORGANIZATION(' ',' ',' ') ;
#21=APPROVAL(#20,' ') ;
#20=APPROVAL_STATUS('not_yet_approved') ;
#19=APPROVAL_ROLE('APPROVER') ;
#13=DATE_AND_TIME(#11,#12) ;
#12=LOCAL_TIME(21,50,33.,#10) ;
#10=COORDINATED_UNIVERSAL_TIME_OFFSET(0,0,.AHEAD.) ;
#86=ORIENTED_EDGE('',*,*,#65,.F.) ;
#87=ORIENTED_EDGE('',*,*,#72,.T.) ;
#88=ORIENTED_EDGE('',*,*,#79,.T.) ;
#89=ORIENTED_EDGE('',*,*,#84,.F.) ;
#126=ORIENTED_EDGE('',*,*,#105,.F.) ;
#127=ORIENTED_EDGE('',*,*,#112,.T.) ;
#128=ORIENTED_EDGE('',*,*,#119,.T.) ;
#129=ORIENTED_EDGE('',*,*,#124,.F.) ;
#157=ORIENTED_EDGE('',*,*,#145,.T.) ;
#158=ORIENTED_EDGE('',*,*,#150,.F.) ;
#159=ORIENTED_EDGE('',*,*,#119,.F.) ;
#160=ORIENTED_EDGE('',*,*,#155,.T.) ;
#216=ORIENTED_EDGE('',*,*,#105,.T.) ;
#217=ORIENTED_EDGE('',*,*,#174,.T.) ;
#218=ORIENTED_EDGE('',*,*,#181,.F.) ;
#219=ORIENTED_EDGE('',*,*,#188,.F.) ;
#220=ORIENTED_EDGE('',*,*,#195,.F.) ;
#221=ORIENTED_EDGE('',*,*,#202,.T.) ;
#222=ORIENTED_EDGE('',*,*,#209,.T.) ;
#223=ORIENTED_EDGE('',*,*,#214,.F.) ;
#251=ORIENTED_EDGE('',*,*,#237,.T.) ;
#252=ORIENTED_EDGE('',*,*,#195,.T.) ;
#253=ORIENTED_EDGE('',*,*,#244,.F.) ;
#254=ORIENTED_EDGE('',*,*,#249,.T.) ;
#282=ORIENTED_EDGE('',*,*,#249,.F.) ;
#283=ORIENTED_EDGE('',*,*,#268,.T.) ;
#284=ORIENTED_EDGE('',*,*,#275,.T.) ;
#285=ORIENTED_EDGE('',*,*,#280,.F.) ;
#323=ORIENTED_EDGE('',*,*,#301,.F.) ;
#324=ORIENTED_EDGE('',*,*,#306,.T.) ;
#325=ORIENTED_EDGE('',*,*,#181,.T.) ;
#326=ORIENTED_EDGE('',*,*,#311,.T.) ;
#327=ORIENTED_EDGE('',*,*,#145,.F.) ;
#328=ORIENTED_EDGE('',*,*,#316,.F.) ;
#329=ORIENTED_EDGE('',*,*,#209,.F.) ;
#330=ORIENTED_EDGE('',*,*,#321,.F.) ;
#353=ORIENTED_EDGE('',*,*,#339,.T.) ;
#354=ORIENTED_EDGE('',*,*,#346,.T.) ;
#355=ORIENTED_EDGE('',*,*,#351,.F.) ;
#356=ORIENTED_EDGE('',*,*,#275,.F.) ;
#370=ORIENTED_EDGE('',*,*,#363,.T.) ;
#371=ORIENTED_EDGE('',*,*,#301,.T.) ;
#372=ORIENTED_EDGE('',*,*,#368,.F.) ;
#373=ORIENTED_EDGE('',*,*,#72,.F.) ;
#392=ORIENTED_EDGE('',*,*,#84,.T.) ;
#393=ORIENTED_EDGE('',*,*,#385,.T.) ;
#394=ORIENTED_EDGE('',*,*,#346,.F.) ;
#395=ORIENTED_EDGE('',*,*,#390,.F.) ;
#404=ORIENTED_EDGE('',*,*,#268,.F.) ;
#405=ORIENTED_EDGE('',*,*,#244,.T.) ;
#406=ORIENTED_EDGE('',*,*,#188,.T.) ;
#407=ORIENTED_EDGE('',*,*,#306,.F.) ;
#408=ORIENTED_EDGE('',*,*,#363,.F.) ;
#409=ORIENTED_EDGE('',*,*,#65,.T.) ;
#410=ORIENTED_EDGE('',*,*,#390,.T.) ;
#411=ORIENTED_EDGE('',*,*,#339,.F.) ;
#420=ORIENTED_EDGE('',*,*,#150,.T.) ;
#421=ORIENTED_EDGE('',*,*,#311,.F.) ;
#422=ORIENTED_EDGE('',*,*,#174,.F.) ;
#423=ORIENTED_EDGE('',*,*,#124,.T.) ;
#432=ORIENTED_EDGE('',*,*,#351,.T.) ;
#433=ORIENTED_EDGE('',*,*,#385,.F.) ;
#434=ORIENTED_EDGE('',*,*,#79,.F.) ;
#435=ORIENTED_EDGE('',*,*,#368,.T.) ;
#436=ORIENTED_EDGE('',*,*,#321,.T.) ;
#437=ORIENTED_EDGE('',*,*,#202,.F.) ;
#438=ORIENTED_EDGE('',*,*,#237,.F.) ;
#439=ORIENTED_EDGE('',*,*,#280,.T.) ;
#448=ORIENTED_EDGE('',*,*,#112,.F.) ;
#449=ORIENTED_EDGE('',*,*,#214,.T.) ;
#450=ORIENTED_EDGE('',*,*,#316,.T.) ;
#451=ORIENTED_EDGE('',*,*,#155,.F.) ;
#51=CLOSED_SHELL('Closed Shell',(#91,#131,#162,#225,#256,#287,#332,#358,#375,#397,#413,#425,#441,#453)) ;
#59=VECTOR('Line Direction',#58,1.) ;
#68=VECTOR('Line Direction',#67,1.) ;
#75=VECTOR('Line Direction',#74,1.) ;
#82=VECTOR('Line Direction',#81,1.) ;
#99=VECTOR('Line Direction',#98,1.) ;
#108=VECTOR('Line Direction',#107,1.) ;
#115=VECTOR('Line Direction',#114,1.) ;
#122=VECTOR('Line Direction',#121,1.) ;
#139=VECTOR('Line Direction',#138,1.) ;
#148=VECTOR('Line Direction',#147,1.) ;
#153=VECTOR('Line Direction',#152,1.) ;
#170=VECTOR('Line Direction',#169,1.) ;
#177=VECTOR('Line Direction',#176,1.) ;
#184=VECTOR('Line Direction',#183,1.) ;
#191=VECTOR('Line Direction',#190,1.) ;
#198=VECTOR('Line Direction',#197,1.) ;
#205=VECTOR('Line Direction',#204,1.) ;
#212=VECTOR('Line Direction',#211,1.) ;
#233=VECTOR('Line Direction',#232,1.) ;
#240=VECTOR('Line Direction',#239,1.) ;
#247=VECTOR('Line Direction',#246,1.) ;
#264=VECTOR('Line Direction',#263,1.) ;
#271=VECTOR('Line Direction',#270,1.) ;
#278=VECTOR('Line Direction',#277,1.) ;
#295=VECTOR('Line Direction',#294,1.) ;
#304=VECTOR('Line Direction',#303,1.) ;
#309=VECTOR('Line Direction',#308,1.) ;
#314=VECTOR('Line Direction',#313,1.) ;
#319=VECTOR('Line Direction',#318,1.) ;
#335=VECTOR('Line Direction',#334,1.) ;
#342=VECTOR('Line Direction',#341,1.) ;
#349=VECTOR('Line Direction',#348,1.) ;
#361=VECTOR('Line Direction',#360,1.) ;
#366=VECTOR('Line Direction',#365,1.) ;
#383=VECTOR('Line Direction',#382,1.) ;
#388=VECTOR('Line Direction',#387,1.) ;
#455=ADVANCED_BREP_SHAPE_REPRESENTATION('NONE',(#454),#46) ;
#49=SHAPE_REPRESENTATION(' ',(#48),#46) ;
#91=ADVANCED_FACE('Corps principal',(#90),#56,.F.) ;
#131=ADVANCED_FACE('Corps principal',(#130),#96,.T.) ;
#162=ADVANCED_FACE('Corps principal',(#161),#136,.T.) ;
#225=ADVANCED_FACE('Corps principal',(#224),#167,.T.) ;
#256=ADVANCED_FACE('Corps principal',(#255),#230,.F.) ;
#287=ADVANCED_FACE('Corps principal',(#286),#261,.T.) ;
#332=ADVANCED_FACE('Corps principal',(#331),#292,.T.) ;
#358=ADVANCED_FACE('Corps principal',(#357),#96,.F.) ;
#375=ADVANCED_FACE('Corps principal',(#374),#261,.T.) ;
#397=ADVANCED_FACE('Corps principal',(#396),#380,.T.) ;
#413=ADVANCED_FACE('Corps principal',(#412),#402,.T.) ;
#425=ADVANCED_FACE('Corps principal',(#424),#418,.T.) ;
#441=ADVANCED_FACE('Corps principal',(#440),#430,.F.) ;
#453=ADVANCED_FACE('Corps principal',(#452),#446,.F.) ;
#4=APPLICATION_PROTOCOL_DEFINITION('international standard','config_control_design',1994,#1) ;
#32=APPROVAL_DATE_TIME(#13,#21) ;
#454=MANIFOLD_SOLID_BREP('Corps principal',#51) ;
#11=CALENDAR_DATE(2022,6,12) ;
#30=CC_DESIGN_APPROVAL(#21,(#16,#6,#14)) ;
#18=CC_DESIGN_DATE_AND_TIME_ASSIGNMENT(#13,#17,(#16)) ;
#29=CC_DESIGN_DATE_AND_TIME_ASSIGNMENT(#13,#28,(#14)) ;
#17=DATE_TIME_ROLE('classification_date') ;
#28=DATE_TIME_ROLE('creation_date') ;
#27=CC_DESIGN_PERSON_AND_ORGANIZATION_ASSIGNMENT(#25,#26,(#16)) ;
#33=CC_DESIGN_PERSON_AND_ORGANIZATION_ASSIGNMENT(#25,#34,(#6)) ;
#35=CC_DESIGN_PERSON_AND_ORGANIZATION_ASSIGNMENT(#25,#36,(#6,#14)) ;
#37=CC_DESIGN_PERSON_AND_ORGANIZATION_ASSIGNMENT(#25,#38,(#5)) ;
#26=PERSON_AND_ORGANIZATION_ROLE('classification_officer') ;
#34=PERSON_AND_ORGANIZATION_ROLE('design_supplier') ;
#36=PERSON_AND_ORGANIZATION_ROLE('creator') ;
#38=PERSON_AND_ORGANIZATION_ROLE('design_owner') ;
#39=CC_DESIGN_SECURITY_CLASSIFICATION(#16,(#6)) ;
#456=SHAPE_REPRESENTATION_RELATIONSHIP(' ',' ',#49,#455) ;
#3=DESIGN_CONTEXT(' ',#1,'design') ;
#65=EDGE_CURVE('',#62,#64,#60,.T.) ;
#72=EDGE_CURVE('',#62,#71,#69,.F.) ;
#79=EDGE_CURVE('',#71,#78,#76,.T.) ;
#84=EDGE_CURVE('',#64,#78,#83,.F.) ;
#105=EDGE_CURVE('',#102,#104,#100,.F.) ;
#112=EDGE_CURVE('',#102,#111,#109,.T.) ;
#119=EDGE_CURVE('',#111,#118,#116,.F.) ;
#124=EDGE_CURVE('',#104,#118,#123,.T.) ;
#145=EDGE_CURVE('',#142,#144,#140,.F.) ;
#150=EDGE_CURVE('',#118,#144,#149,.T.) ;
#155=EDGE_CURVE('',#111,#142,#154,.T.) ;
#174=EDGE_CURVE('',#104,#173,#171,.T.) ;
#181=EDGE_CURVE('',#180,#173,#178,.T.) ;
#188=EDGE_CURVE('',#187,#180,#185,.T.) ;
#195=EDGE_CURVE('',#194,#187,#192,.F.) ;
#202=EDGE_CURVE('',#194,#201,#199,.T.) ;
#209=EDGE_CURVE('',#201,#208,#206,.F.) ;
#214=EDGE_CURVE('',#102,#208,#213,.T.) ;
#237=EDGE_CURVE('',#236,#194,#234,.T.) ;
#244=EDGE_CURVE('',#243,#187,#241,.T.) ;
#249=EDGE_CURVE('',#243,#236,#248,.F.) ;
#268=EDGE_CURVE('',#243,#267,#265,.T.) ;
#275=EDGE_CURVE('',#267,#274,#272,.F.) ;
#280=EDGE_CURVE('',#236,#274,#279,.T.) ;
#301=EDGE_CURVE('',#298,#300,#296,.F.) ;
#306=EDGE_CURVE('',#298,#180,#305,.T.) ;
#311=EDGE_CURVE('',#173,#144,#310,.T.) ;
#316=EDGE_CURVE('',#208,#142,#315,.T.) ;
#321=EDGE_CURVE('',#300,#201,#320,.T.) ;
#339=EDGE_CURVE('',#267,#338,#336,.T.) ;
#346=EDGE_CURVE('',#338,#345,#343,.F.) ;
#351=EDGE_CURVE('',#274,#345,#350,.T.) ;
#363=EDGE_CURVE('',#62,#298,#362,.T.) ;
#368=EDGE_CURVE('',#71,#300,#367,.T.) ;
#385=EDGE_CURVE('',#78,#345,#384,.T.) ;
#390=EDGE_CURVE('',#64,#338,#389,.T.) ;
#85=EDGE_LOOP('',(#86,#87,#88,#89)) ;
#125=EDGE_LOOP('',(#126,#127,#128,#129)) ;
#156=EDGE_LOOP('',(#157,#158,#159,#160)) ;
#215=EDGE_LOOP('',(#216,#217,#218,#219,#220,#221,#222,#223)) ;
#250=EDGE_LOOP('',(#251,#252,#253,#254)) ;
#281=EDGE_LOOP('',(#282,#283,#284,#285)) ;
#322=EDGE_LOOP('',(#323,#324,#325,#326,#327,#328,#329,#330)) ;
#352=EDGE_LOOP('',(#353,#354,#355,#356)) ;
#369=EDGE_LOOP('',(#370,#371,#372,#373)) ;
#391=EDGE_LOOP('',(#392,#393,#394,#395)) ;
#403=EDGE_LOOP('',(#404,#405,#406,#407,#408,#409,#410,#411)) ;
#419=EDGE_LOOP('',(#420,#421,#422,#423)) ;
#431=EDGE_LOOP('',(#432,#433,#434,#435,#436,#437,#438,#439)) ;
#447=EDGE_LOOP('',(#448,#449,#450,#451)) ;
#90=FACE_OUTER_BOUND('',#85,.T.) ;
#130=FACE_OUTER_BOUND('',#125,.T.) ;
#161=FACE_OUTER_BOUND('',#156,.T.) ;
#224=FACE_OUTER_BOUND('',#215,.T.) ;
#255=FACE_OUTER_BOUND('',#250,.T.) ;
#286=FACE_OUTER_BOUND('',#281,.T.) ;
#331=FACE_OUTER_BOUND('',#322,.T.) ;
#357=FACE_OUTER_BOUND('',#352,.T.) ;
#374=FACE_OUTER_BOUND('',#369,.T.) ;
#396=FACE_OUTER_BOUND('',#391,.T.) ;
#412=FACE_OUTER_BOUND('',#403,.T.) ;
#424=FACE_OUTER_BOUND('',#419,.T.) ;
#440=FACE_OUTER_BOUND('',#431,.T.) ;
#452=FACE_OUTER_BOUND('',#447,.T.) ;
#45=UNCERTAINTY_MEASURE_WITH_UNIT(LENGTH_MEASURE(0.005),#41,'distance_accuracy_value','CONFUSED CURVE UNCERTAINTY') ;
#60=LINE('Line',#57,#59) ;
#69=LINE('Line',#66,#68) ;
#76=LINE('Line',#73,#75) ;
#83=LINE('Line',#80,#82) ;
#100=LINE('Line',#97,#99) ;
#109=LINE('Line',#106,#108) ;
#116=LINE('Line',#113,#115) ;
#123=LINE('Line',#120,#122) ;
#140=LINE('Line',#137,#139) ;
#149=LINE('Line',#146,#148) ;
#154=LINE('Line',#151,#153) ;
#171=LINE('Line',#168,#170) ;
#178=LINE('Line',#175,#177) ;
#185=LINE('Line',#182,#184) ;
#192=LINE('Line',#189,#191) ;
#199=LINE('Line',#196,#198) ;
#206=LINE('Line',#203,#205) ;
#213=LINE('Line',#210,#212) ;
#234=LINE('Line',#231,#233) ;
#241=LINE('Line',#238,#240) ;
#248=LINE('Line',#245,#247) ;
#265=LINE('Line',#262,#264) ;
#272=LINE('Line',#269,#271) ;
#279=LINE('Line',#276,#278) ;
#296=LINE('Line',#293,#295) ;
#305=LINE('Line',#302,#304) ;
#310=LINE('Line',#307,#309) ;
#315=LINE('Line',#312,#314) ;
#320=LINE('Line',#317,#319) ;
#336=LINE('Line',#333,#335) ;
#343=LINE('Line',#340,#342) ;
#350=LINE('Line',#347,#349) ;
#362=LINE('Line',#359,#361) ;
#367=LINE('Line',#364,#366) ;
#384=LINE('Line',#381,#383) ;
#389=LINE('Line',#386,#388) ;
#2=MECHANICAL_CONTEXT(' ',#1,'mechanical') ;
#24=PERSONAL_ADDRESS(' ',' ',' ',' ',' ',' ',' ',' ',' ',' ',' ',' ',(#22),' ') ;
#56=PLANE('Plane',#55) ;
#96=PLANE('Plane',#95) ;
#136=PLANE('Plane',#135) ;
#167=PLANE('Plane',#166) ;
#230=PLANE('Plane',#229) ;
#261=PLANE('Plane',#260) ;
#292=PLANE('Plane',#291) ;
#380=PLANE('Plane',#379) ;
#402=PLANE('Plane',#401) ;
#418=PLANE('Plane',#417) ;
#430=PLANE('Plane',#429) ;
#446=PLANE('Plane',#445) ;
#43=PLANE_ANGLE_MEASURE_WITH_UNIT(PLANE_ANGLE_MEASURE(0.0174532925199),#42) ;
#7=PRODUCT_CATEGORY('part',$) ;
#9=PRODUCT_CATEGORY_RELATIONSHIP(' ',' ',#7,#8) ;
#6=PRODUCT_DEFINITION_FORMATION_WITH_SPECIFIED_SOURCE('',' ',#5,.NOT_KNOWN.) ;
#8=PRODUCT_RELATED_PRODUCT_CATEGORY('detail',$,(#5)) ;
#50=SHAPE_DEFINITION_REPRESENTATION(#40,#49) ;
#62=VERTEX_POINT('',#61) ;
#64=VERTEX_POINT('',#63) ;
#71=VERTEX_POINT('',#70) ;
#78=VERTEX_POINT('',#77) ;
#102=VERTEX_POINT('',#101) ;
#104=VERTEX_POINT('',#103) ;
#111=VERTEX_POINT('',#110) ;
#118=VERTEX_POINT('',#117) ;
#142=VERTEX_POINT('',#141) ;
#144=VERTEX_POINT('',#143) ;
#173=VERTEX_POINT('',#172) ;
#180=VERTEX_POINT('',#179) ;
#187=VERTEX_POINT('',#186) ;
#194=VERTEX_POINT('',#193) ;
#201=VERTEX_POINT('',#200) ;
#208=VERTEX_POINT('',#207) ;
#236=VERTEX_POINT('',#235) ;
#243=VERTEX_POINT('',#242) ;
#267=VERTEX_POINT('',#266) ;
#274=VERTEX_POINT('',#273) ;
#298=VERTEX_POINT('',#297) ;
#300=VERTEX_POINT('',#299) ;
#338=VERTEX_POINT('',#337) ;
#345=VERTEX_POINT('',#344) ;
#41=(LENGTH_UNIT()NAMED_UNIT(*)SI_UNIT(.MILLI.,.METRE.)) ;
#42=(NAMED_UNIT(*)PLANE_ANGLE_UNIT()SI_UNIT($,.RADIAN.)) ;
#44=(NAMED_UNIT(*)SI_UNIT($,.STERADIAN.)SOLID_ANGLE_UNIT()) ;
#46=(GEOMETRIC_REPRESENTATION_CONTEXT(3)GLOBAL_UNCERTAINTY_ASSIGNED_CONTEXT((#45))GLOBAL_UNIT_ASSIGNED_CONTEXT((#41,#42,#44))REPRESENTATION_CONTEXT(' ',' ')) ;
ENDSEC;
END-ISO-10303-21;
