ISO-10303-21;
HEADER;
FILE_DESCRIPTION (( 'STEP AP203' ),
    '1' );
FILE_NAME ('doigt.STEP',
    '2020-12-13T12:49:19',
    ( '' ),
    ( '' ),
    'SwSTEP 2.0',
    'SolidWorks 2019',
    '' );
FILE_SCHEMA (( 'CONFIG_CONTROL_DESIGN' ));
ENDSEC;

DATA;
#1 = PRODUCT_DEFINITION ( 'UNKNOWN', '', #162, #170 ) ;
#2 = DIRECTION ( 'NONE',  ( 0.000000000000000000, 0.000000000000000000, 1.000000000000000000 ) ) ;
#3 = EDGE_CURVE ( 'NONE', #284, #24, #152, .T. ) ;
#4 = FACE_OUTER_BOUND ( 'NONE', #101, .T. ) ;
#5 = CARTESIAN_POINT ( 'NONE',  ( 1.500000000000000000, 4.743482370579656049, 96.00000000000000000 ) ) ;
#6 = LINE ( 'NONE', #181, #54 ) ;
#7 = DIRECTION ( 'NONE',  ( 0.000000000000000000, 0.000000000000000000, 1.000000000000000000 ) ) ;
#8 = CC_DESIGN_APPROVAL ( #255, ( #192 ) ) ;
#9 = LINE ( 'NONE', #33, #285 ) ;
#10 = DIRECTION ( 'NONE',  ( 1.000000000000000000, 0.000000000000000000, 0.000000000000000000 ) ) ;
#11 = CIRCLE ( 'NONE', #119, 4.974999999999999645 ) ;
#12 = AXIS2_PLACEMENT_3D ( 'NONE', #241, #227, #201 ) ;
#13 = CARTESIAN_POINT ( 'NONE',  ( -4.974999999999999645, 0.000000000000000000, 90.00000000000000000 ) ) ;
#14 = ORIENTED_EDGE ( 'NONE', *, *, #112, .T. ) ;
#15 = APPROVAL_ROLE ( '' ) ;
#16 =( LENGTH_UNIT ( ) NAMED_UNIT ( * ) SI_UNIT ( .MILLI., .METRE. ) );
#17 = ORGANIZATION ( 'UNSPECIFIED', 'UNSPECIFIED', '' ) ;
#18 = PERSON_AND_ORGANIZATION_ROLE ( 'creator' ) ;
#19 = AXIS2_PLACEMENT_3D ( 'NONE', #158, #2, #126 ) ;
#20 = VERTEX_POINT ( 'NONE', #295 ) ;
#21 = ORIENTED_EDGE ( 'NONE', *, *, #76, .F. ) ;
#22 = APPROVAL_DATE_TIME ( #294, #96 ) ;
#23 = EDGE_LOOP ( 'NONE', ( #121, #196, #14, #240, #224, #292 ) ) ;
#24 = VERTEX_POINT ( 'NONE', #99 ) ;
#25 = ORIENTED_EDGE ( 'NONE', *, *, #161, .F. ) ;
#26 = EDGE_CURVE ( 'NONE', #122, #267, #156, .T. ) ;
#27 = EDGE_CURVE ( 'NONE', #122, #50, #183, .T. ) ;
#28 = DIRECTION ( 'NONE',  ( 0.000000000000000000, 0.000000000000000000, 1.000000000000000000 ) ) ;
#29 = CARTESIAN_POINT ( 'NONE',  ( 4.974999999999999645, 6.092617825758079932E-16, 70.00000000000000000 ) ) ;
#30 = CC_DESIGN_SECURITY_CLASSIFICATION ( #192, ( #162 ) ) ;
#31 = CARTESIAN_POINT ( 'NONE',  ( 0.000000000000000000, 0.000000000000000000, -0.07010170464867528095 ) ) ;
#32 = PLANE ( 'NONE',  #205 ) ;
#33 = CARTESIAN_POINT ( 'NONE',  ( 2.979999999999999982, 0.000000000000000000, -0.07010170464867528095 ) ) ;
#34 = MANIFOLD_SOLID_BREP ( 'Enlèv. mat.-Extru.1', #286 ) ;
#35 = DIRECTION ( 'NONE',  ( 0.000000000000000000, 0.000000000000000000, 1.000000000000000000 ) ) ;
#36 = APPROVAL_PERSON_ORGANIZATION ( #142, #96, #123 ) ;
#37 =( BOUNDED_CURVE ( )  B_SPLINE_CURVE ( 3, ( #136, #188, #189, #235 ),
 .UNSPECIFIED., .F., .F. ) 
 B_SPLINE_CURVE_WITH_KNOTS ( ( 4, 4 ),
 ( 0.000000000000000000, 1.264522950321911532 ),
 .UNSPECIFIED. ) 
 CURVE ( )  GEOMETRIC_REPRESENTATION_ITEM ( )  RATIONAL_B_SPLINE_CURVE ( ( 1.000000000000000000, 0.8711287379846730516, 0.8711287379846730516, 1.000000000000000000 ) ) 
 REPRESENTATION_ITEM ( '' )  );
#38 = CIRCLE ( 'NONE', #64, 2.979999999999999982 ) ;
#39 = CARTESIAN_POINT ( 'NONE',  ( 2.979999999999999982, 0.000000000000000000, -0.07010170464867528095 ) ) ;
#40 = CC_DESIGN_PERSON_AND_ORGANIZATION_ASSIGNMENT ( #225, #288, ( #162 ) ) ;
#41 = PERSON_AND_ORGANIZATION_ROLE ( 'classification_officer' ) ;
#42 = PERSON_AND_ORGANIZATION ( #280, #17 ) ;
#43 = ORIENTED_EDGE ( 'NONE', *, *, #3, .F. ) ;
#44 = ADVANCED_FACE ( 'NONE', ( #206 ), #104, .T. ) ;
#45 =( NAMED_UNIT ( * ) SI_UNIT ( $, .STERADIAN. ) SOLID_ANGLE_UNIT ( ) );
#46 = DATE_AND_TIME ( #197, #118 ) ;
#47 = EDGE_LOOP ( 'NONE', ( #70, #218, #266 ) ) ;
#48 = ORIENTED_EDGE ( 'NONE', *, *, #27, .F. ) ;
#49 = PERSON_AND_ORGANIZATION ( #280, #17 ) ;
#50 = VERTEX_POINT ( 'NONE', #29 ) ;
#51 = EDGE_LOOP ( 'NONE', ( #226, #325 ) ) ;
#52 = ADVANCED_FACE ( 'NONE', ( #250 ), #128, .T. ) ;
#53 =( GEOMETRIC_REPRESENTATION_CONTEXT ( 3 ) GLOBAL_UNCERTAINTY_ASSIGNED_CONTEXT ( ( #300 ) ) GLOBAL_UNIT_ASSIGNED_CONTEXT ( ( #16, #261, #45 ) ) REPRESENTATION_CONTEXT ( 'NONE', 'WORKASPACE' ) );
#54 = VECTOR ( 'NONE', #211, 1000.000000000000000 ) ;
#55 = ADVANCED_FACE ( 'NONE', ( #270 ), #83, .T. ) ;
#56 = DIRECTION ( 'NONE',  ( -0.8653439883340556804, 0.000000000000000000, 0.5011783932434736855 ) ) ;
#57 = CARTESIAN_POINT ( 'NONE',  ( 0.000000000000000000, 0.000000000000000000, -0.07010170464867528095 ) ) ;
#58 = CARTESIAN_POINT ( 'NONE',  ( -2.979999999999999982, 3.649447461459112858E-16, -0.07010170464867528095 ) ) ;
#59 = DIRECTION ( 'NONE',  ( 1.000000000000000000, 0.000000000000000000, -0.000000000000000000 ) ) ;
#60 = FACE_OUTER_BOUND ( 'NONE', #172, .T. ) ;
#61 = DIRECTION ( 'NONE',  ( -1.000000000000000000, 0.000000000000000000, 0.000000000000000000 ) ) ;
#62 = AXIS2_PLACEMENT_3D ( 'NONE', #31, #117, #68 ) ;
#63 = CC_DESIGN_PERSON_AND_ORGANIZATION_ASSIGNMENT ( #93, #41, ( #192 ) ) ;
#64 = AXIS2_PLACEMENT_3D ( 'NONE', #275, #160, #10 ) ;
#65 = COORDINATED_UNIVERSAL_TIME_OFFSET ( 1, 0, .AHEAD. ) ;
#66 = CARTESIAN_POINT ( 'NONE',  ( 4.974999999999999645, 6.092617825758079932E-16, 90.00000000000000000 ) ) ;
#67 = PERSON_AND_ORGANIZATION ( #280, #17 ) ;
#68 = DIRECTION ( 'NONE',  ( 1.000000000000000000, 0.000000000000000000, 0.000000000000000000 ) ) ;
#69 = PERSON_AND_ORGANIZATION_ROLE ( 'design_supplier' ) ;
#70 = ORIENTED_EDGE ( 'NONE', *, *, #204, .T. ) ;
#71 = APPROVAL_STATUS ( 'not_yet_approved' ) ;
#72 = VERTEX_POINT ( 'NONE', #107 ) ;
#73 = CARTESIAN_POINT ( 'NONE',  ( 3.645307518481022857, 4.065085988697817676, 92.29587191053633433 ) ) ;
#74 = ORIENTED_EDGE ( 'NONE', *, *, #276, .T. ) ;
#75 = LOCAL_TIME ( 13, 49, 19.00000000000000000, #90 ) ;
#76 = EDGE_CURVE ( 'NONE', #214, #144, #195, .T. ) ;
#77 = PRODUCT ( 'doigt', 'doigt', '', ( #315 ) ) ;
#78 = CIRCLE ( 'NONE', #111, 4.974999999999999645 ) ;
#79 =( BOUNDED_CURVE ( )  B_SPLINE_CURVE ( 3, ( #311, #312, #279, #115 ),
 .UNSPECIFIED., .F., .F. ) 
 B_SPLINE_CURVE_WITH_KNOTS ( ( 4, 4 ),
 ( 5.018662356857674922, 6.283185307179586232 ),
 .UNSPECIFIED. ) 
 CURVE ( )  GEOMETRIC_REPRESENTATION_ITEM ( )  RATIONAL_B_SPLINE_CURVE ( ( 1.000000000000000000, 0.8711287379846730516, 0.8711287379846730516, 1.000000000000000000 ) ) 
 REPRESENTATION_ITEM ( '' )  );
#80 = CARTESIAN_POINT ( 'NONE',  ( 0.000000000000000000, 0.000000000000000000, 96.00000000000000000 ) ) ;
#81 = CARTESIAN_POINT ( 'NONE',  ( 0.000000000000000000, 0.000000000000000000, 70.00000000000000000 ) ) ;
#82 = CARTESIAN_POINT ( 'NONE',  ( 0.000000000000000000, 0.000000000000000000, 96.00000000000000000 ) ) ;
#83 = PLANE ( 'NONE',  #234 ) ;
#84 = ADVANCED_BREP_SHAPE_REPRESENTATION ( 'doigt', ( #34, #268 ), #53 ) ;
#85 = CARTESIAN_POINT ( 'NONE',  ( 1.500000000000000000, 26.00000000000000000, 96.00000000000000000 ) ) ;
#86 = DIRECTION ( 'NONE',  ( 0.000000000000000000, 0.000000000000000000, 1.000000000000000000 ) ) ;
#87 = CC_DESIGN_DATE_AND_TIME_ASSIGNMENT ( #194, #314, ( #192 ) ) ;
#88 = CARTESIAN_POINT ( 'NONE',  ( -1.499999999999999778, 0.000000000000000000, 96.00000000000000000 ) ) ;
#89 = CARTESIAN_POINT ( 'NONE',  ( 3.645307518481022857, -4.065085988697817676, 92.29587191053633433 ) ) ;
#90 = COORDINATED_UNIVERSAL_TIME_OFFSET ( 1, 0, .AHEAD. ) ;
#91 = ORIENTED_EDGE ( 'NONE', *, *, #257, .T. ) ;
#92 = APPROVAL_PERSON_ORGANIZATION ( #120, #254, #222 ) ;
#93 = PERSON_AND_ORGANIZATION ( #280, #17 ) ;
#94 = AXIS2_PLACEMENT_3D ( 'NONE', #182, #105, #130 ) ;
#95 = EDGE_LOOP ( 'NONE', ( #91, #98, #174 ) ) ;
#96 = APPROVAL ( #71, 'UNSPECIFIED' ) ;
#97 = APPROVAL_DATE_TIME ( #146, #254 ) ;
#98 = ORIENTED_EDGE ( 'NONE', *, *, #26, .T. ) ;
#99 = CARTESIAN_POINT ( 'NONE',  ( -2.979999999999999982, 3.649447461459112858E-16, 70.00000000000000000 ) ) ;
#100 = COORDINATED_UNIVERSAL_TIME_OFFSET ( 1, 0, .AHEAD. ) ;
#101 = EDGE_LOOP ( 'NONE', ( #140, #124 ) ) ;
#102 = ADVANCED_FACE ( 'NONE', ( #228 ), #208, .T. ) ;
#103 = AXIS2_PLACEMENT_3D ( 'NONE', #57, #155, #248 ) ;
#104 = CYLINDRICAL_SURFACE ( 'NONE', #178, 4.974999999999999645 ) ;
#105 = DIRECTION ( 'NONE',  ( 0.000000000000000000, 0.000000000000000000, 1.000000000000000000 ) ) ;
#106 = EDGE_CURVE ( 'NONE', #72, #24, #307, .T. ) ;
#107 = CARTESIAN_POINT ( 'NONE',  ( -2.979999999999999982, 3.649447461459112858E-16, -0.07010170464867528095 ) ) ;
#108 = CARTESIAN_POINT ( 'NONE',  ( 1.500000000000000000, 0.000000000000000000, 96.00000000000000000 ) ) ;
#109 = DIRECTION ( 'NONE',  ( 1.000000000000000000, 0.000000000000000000, 0.000000000000000000 ) ) ;
#110 = CARTESIAN_POINT ( 'NONE',  ( -4.974999999999999645, 0.000000000000000000, 70.00000000000000000 ) ) ;
#111 = AXIS2_PLACEMENT_3D ( 'NONE', #81, #129, #305 ) ;
#112 = EDGE_CURVE ( 'NONE', #50, #313, #151, .T. ) ;
#113 = ADVANCED_FACE ( 'NONE', ( #272 ), #207, .T. ) ;
#114 = LINE ( 'NONE', #108, #297 ) ;
#115 = CARTESIAN_POINT ( 'NONE',  ( -4.974999999999999645, 0.000000000000000000, 90.00000000000000000 ) ) ;
#116 = ORIENTED_EDGE ( 'NONE', *, *, #287, .T. ) ;
#117 = DIRECTION ( 'NONE',  ( 0.000000000000000000, 0.000000000000000000, 1.000000000000000000 ) ) ;
#118 = LOCAL_TIME ( 13, 49, 19.00000000000000000, #238 ) ;
#119 = AXIS2_PLACEMENT_3D ( 'NONE', #82, #7, #157 ) ;
#120 = PERSON_AND_ORGANIZATION ( #280, #17 ) ;
#121 = ORIENTED_EDGE ( 'NONE', *, *, #26, .F. ) ;
#122 = VERTEX_POINT ( 'NONE', #210 ) ;
#123 = APPROVAL_ROLE ( '' ) ;
#124 = ORIENTED_EDGE ( 'NONE', *, *, #319, .F. ) ;
#125 = EDGE_LOOP ( 'NONE', ( #243, #193, #199, #74 ) ) ;
#126 = DIRECTION ( 'NONE',  ( 1.000000000000000000, 0.000000000000000000, 0.000000000000000000 ) ) ;
#127 = CC_DESIGN_PERSON_AND_ORGANIZATION_ASSIGNMENT ( #67, #173, ( #77 ) ) ;
#128 = PLANE ( 'NONE',  #163 ) ;
#129 = DIRECTION ( 'NONE',  ( 0.000000000000000000, 0.000000000000000000, 1.000000000000000000 ) ) ;
#130 = DIRECTION ( 'NONE',  ( 1.000000000000000000, 0.000000000000000000, 0.000000000000000000 ) ) ;
#131 = PLANE ( 'NONE',  #239 ) ;
#132 = CC_DESIGN_APPROVAL ( #254, ( #1 ) ) ;
#133 = CARTESIAN_POINT ( 'NONE',  ( 0.000000000000000000, 0.000000000000000000, 70.00000000000000000 ) ) ;
#134 = EDGE_CURVE ( 'NONE', #267, #20, #11, .T. ) ;
#135 = AXIS2_PLACEMENT_3D ( 'NONE', #247, #145, #61 ) ;
#136 = CARTESIAN_POINT ( 'NONE',  ( -4.974999999999999645, 0.000000000000000000, 90.00000000000000000 ) ) ;
#137 = PLANE ( 'NONE',  #318 ) ;
#138 = CALENDAR_DATE ( 2020, 13, 12 ) ;
#139 = APPROVAL_STATUS ( 'not_yet_approved' ) ;
#140 = ORIENTED_EDGE ( 'NONE', *, *, #316, .F. ) ;
#141 = CC_DESIGN_PERSON_AND_ORGANIZATION_ASSIGNMENT ( #324, #69, ( #162 ) ) ;
#142 = PERSON_AND_ORGANIZATION ( #280, #17 ) ;
#143 = ADVANCED_FACE ( 'NONE', ( #249, #252 ), #32, .F. ) ;
#144 = VERTEX_POINT ( 'NONE', #185 ) ;
#145 = DIRECTION ( 'NONE',  ( -0.000000000000000000, -0.000000000000000000, -1.000000000000000000 ) ) ;
#146 = DATE_AND_TIME ( #321, #283 ) ;
#147 = ORIENTED_EDGE ( 'NONE', *, *, #3, .T. ) ;
#148 = EDGE_LOOP ( 'NONE', ( #175, #171, #43, #149 ) ) ;
#149 = ORIENTED_EDGE ( 'NONE', *, *, #302, .F. ) ;
#150 = APPROVAL_PERSON_ORGANIZATION ( #42, #255, #15 ) ;
#151 = CIRCLE ( 'NONE', #94, 4.974999999999999645 ) ;
#152 = CIRCLE ( 'NONE', #12, 2.979999999999999982 ) ;
#153 = PRODUCT_DEFINITION_SHAPE ( 'NONE', 'NONE',  #1 ) ;
#154 = DIRECTION ( 'NONE',  ( 0.5011783932434735744, 0.000000000000000000, 0.8653439883340555694 ) ) ;
#155 = DIRECTION ( 'NONE',  ( 0.000000000000000000, 0.000000000000000000, 1.000000000000000000 ) ) ;
#156 =( BOUNDED_CURVE ( )  B_SPLINE_CURVE ( 3, ( #323, #293, #73, #5 ),
 .UNSPECIFIED., .F., .F. ) 
 B_SPLINE_CURVE_WITH_KNOTS ( ( 4, 4 ),
 ( 1.224646799147353947E-16, 1.264522950321911532 ),
 .UNSPECIFIED. ) 
 CURVE ( )  GEOMETRIC_REPRESENTATION_ITEM ( )  RATIONAL_B_SPLINE_CURVE ( ( 1.000000000000000000, 0.8711287379846730516, 0.8711287379846730516, 1.000000000000000000 ) ) 
 REPRESENTATION_ITEM ( '' )  );
#157 = DIRECTION ( 'NONE',  ( 1.000000000000000000, 0.000000000000000000, 0.000000000000000000 ) ) ;
#158 = CARTESIAN_POINT ( 'NONE',  ( 0.000000000000000000, 0.000000000000000000, 96.00000000000000000 ) ) ;
#159 = CYLINDRICAL_SURFACE ( 'NONE', #203, 2.979999999999999982 ) ;
#160 = DIRECTION ( 'NONE',  ( 0.000000000000000000, 0.000000000000000000, 1.000000000000000000 ) ) ;
#161 = EDGE_CURVE ( 'NONE', #24, #284, #38, .T. ) ;
#162 = PRODUCT_DEFINITION_FORMATION_WITH_SPECIFIED_SOURCE ( 'ANY', '', #77, .NOT_KNOWN. ) ;
#163 = AXIS2_PLACEMENT_3D ( 'NONE', #246, #28, #59 ) ;
#164 = DIRECTION ( 'NONE',  ( 0.000000000000000000, 0.000000000000000000, 1.000000000000000000 ) ) ;
#165 = ADVANCED_FACE ( 'NONE', ( #4 ), #137, .F. ) ;
#166 = SHAPE_DEFINITION_REPRESENTATION ( #153, #84 ) ;
#167 = DIRECTION ( 'NONE',  ( 1.000000000000000000, 0.000000000000000000, -0.000000000000000000 ) ) ;
#168 = EDGE_CURVE ( 'NONE', #20, #214, #259, .T. ) ;
#169 = SECURITY_CLASSIFICATION_LEVEL ( 'unclassified' ) ;
#170 = DESIGN_CONTEXT ( 'detailed design', #306, 'design' ) ;
#171 = ORIENTED_EDGE ( 'NONE', *, *, #106, .T. ) ;
#172 = EDGE_LOOP ( 'NONE', ( #320, #322, #245, #25 ) ) ;
#173 = PERSON_AND_ORGANIZATION_ROLE ( 'design_owner' ) ;
#174 = ORIENTED_EDGE ( 'NONE', *, *, #276, .F. ) ;
#175 = ORIENTED_EDGE ( 'NONE', *, *, #316, .T. ) ;
#176 = VERTEX_POINT ( 'NONE', #39 ) ;
#177 = LOCAL_TIME ( 13, 49, 19.00000000000000000, #265 ) ;
#178 = AXIS2_PLACEMENT_3D ( 'NONE', #80, #180, #304 ) ;
#179 = PRODUCT_RELATED_PRODUCT_CATEGORY ( 'detail', '', ( #77 ) ) ;
#180 = DIRECTION ( 'NONE',  ( -0.000000000000000000, -0.000000000000000000, -1.000000000000000000 ) ) ;
#181 = CARTESIAN_POINT ( 'NONE',  ( -4.974999999999999645, 0.000000000000000000, 96.00000000000000000 ) ) ;
#182 = CARTESIAN_POINT ( 'NONE',  ( 0.000000000000000000, 0.000000000000000000, 70.00000000000000000 ) ) ;
#183 = LINE ( 'NONE', #273, #269 ) ;
#184 = DIRECTION ( 'NONE',  ( 0.8653439883340557914, 0.000000000000000000, 0.5011783932434734634 ) ) ;
#185 = CARTESIAN_POINT ( 'NONE',  ( 1.500000000000000000, -4.743482370579656049, 96.00000000000000000 ) ) ;
#186 = APPLICATION_CONTEXT ( 'configuration controlled 3d designs of mechanical parts and assemblies' ) ;
#187 = CC_DESIGN_PERSON_AND_ORGANIZATION_ASSIGNMENT ( #49, #18, ( #1 ) ) ;
#188 = CARTESIAN_POINT ( 'NONE',  ( -4.975000000000000533, -2.250014666574772448, 90.00000000000001421 ) ) ;
#189 = CARTESIAN_POINT ( 'NONE',  ( -3.645307518481023301, -4.065085988697817676, 92.29587191053633433 ) ) ;
#190 = DATE_AND_TIME ( #138, #253 ) ;
#191 = DIRECTION ( 'NONE',  ( 0.000000000000000000, 0.000000000000000000, 1.000000000000000000 ) ) ;
#192 = SECURITY_CLASSIFICATION ( '', '', #169 ) ;
#193 = ORIENTED_EDGE ( 'NONE', *, *, #168, .T. ) ;
#194 = DATE_AND_TIME ( #215, #75 ) ;
#195 = CIRCLE ( 'NONE', #19, 4.974999999999999645 ) ;
#196 = ORIENTED_EDGE ( 'NONE', *, *, #27, .T. ) ;
#197 = CALENDAR_DATE ( 2020, 13, 12 ) ;
#198 = ORIENTED_EDGE ( 'NONE', *, *, #161, .T. ) ;
#199 = ORIENTED_EDGE ( 'NONE', *, *, #76, .T. ) ;
#200 = DATE_TIME_ROLE ( 'creation_date' ) ;
#201 = DIRECTION ( 'NONE',  ( 1.000000000000000000, 0.000000000000000000, 0.000000000000000000 ) ) ;
#202 = CC_DESIGN_DATE_AND_TIME_ASSIGNMENT ( #46, #200, ( #1 ) ) ;
#203 = AXIS2_PLACEMENT_3D ( 'NONE', #251, #232, #271 ) ;
#204 = EDGE_CURVE ( 'NONE', #20, #262, #79, .T. ) ;
#205 = AXIS2_PLACEMENT_3D ( 'NONE', #133, #231, #233 ) ;
#206 = FACE_OUTER_BOUND ( 'NONE', #23, .T. ) ;
#207 = CYLINDRICAL_SURFACE ( 'NONE', #256, 2.979999999999999982 ) ;
#208 = CYLINDRICAL_SURFACE ( 'NONE', #135, 4.974999999999999645 ) ;
#209 = CARTESIAN_POINT ( 'NONE',  ( 2.979999999999999982, 0.000000000000000000, 70.00000000000000000 ) ) ;
#210 = CARTESIAN_POINT ( 'NONE',  ( 4.974999999999999645, 6.092617825758079932E-16, 90.00000000000000000 ) ) ;
#211 = DIRECTION ( 'NONE',  ( -0.000000000000000000, -0.000000000000000000, -1.000000000000000000 ) ) ;
#212 = CARTESIAN_POINT ( 'NONE',  ( 0.000000000000000000, 0.000000000000000000, -0.07010170464867528095 ) ) ;
#213 = CARTESIAN_POINT ( 'NONE',  ( 1.500000000000000000, 4.743482370579656049, 96.00000000000000000 ) ) ;
#214 = VERTEX_POINT ( 'NONE', #260 ) ;
#215 = CALENDAR_DATE ( 2020, 13, 12 ) ;
#216 = EDGE_CURVE ( 'NONE', #262, #214, #37, .T. ) ;
#217 = CC_DESIGN_APPROVAL ( #96, ( #162 ) ) ;
#218 = ORIENTED_EDGE ( 'NONE', *, *, #216, .T. ) ;
#219 = CARTESIAN_POINT ( 'NONE',  ( 0.000000000000000000, 0.000000000000000000, 0.000000000000000000 ) ) ;
#220 = VECTOR ( 'NONE', #258, 1000.000000000000000 ) ;
#221 = ORIENTED_EDGE ( 'NONE', *, *, #257, .F. ) ;
#222 = APPROVAL_ROLE ( '' ) ;
#223 = EDGE_LOOP ( 'NONE', ( #147, #198 ) ) ;
#224 = ORIENTED_EDGE ( 'NONE', *, *, #204, .F. ) ;
#225 = PERSON_AND_ORGANIZATION ( #280, #17 ) ;
#226 = ORIENTED_EDGE ( 'NONE', *, *, #290, .F. ) ;
#227 = DIRECTION ( 'NONE',  ( 0.000000000000000000, 0.000000000000000000, 1.000000000000000000 ) ) ;
#228 = FACE_OUTER_BOUND ( 'NONE', #244, .T. ) ;
#229 = CARTESIAN_POINT ( 'NONE',  ( -1.499999999999999778, 26.00000000000000000, 96.00000000000000000 ) ) ;
#230 = DIRECTION ( 'NONE',  ( 0.000000000000000000, 1.000000000000000000, 0.000000000000000000 ) ) ;
#231 = DIRECTION ( 'NONE',  ( 0.000000000000000000, 0.000000000000000000, 1.000000000000000000 ) ) ;
#232 = DIRECTION ( 'NONE',  ( 0.000000000000000000, 0.000000000000000000, 1.000000000000000000 ) ) ;
#233 = DIRECTION ( 'NONE',  ( 1.000000000000000000, 0.000000000000000000, -0.000000000000000000 ) ) ;
#234 = AXIS2_PLACEMENT_3D ( 'NONE', #229, #56, #154 ) ;
#235 = CARTESIAN_POINT ( 'NONE',  ( -1.499999999999996225, -4.743482370579657825, 96.00000000000000000 ) ) ;
#236 = CARTESIAN_POINT ( 'NONE',  ( 1.500000000000000000, -4.743482370579656049, 96.00000000000000000 ) ) ;
#237 = APPROVAL_DATE_TIME ( #190, #255 ) ;
#238 = COORDINATED_UNIVERSAL_TIME_OFFSET ( 1, 0, .AHEAD. ) ;
#239 = AXIS2_PLACEMENT_3D ( 'NONE', #85, #184, #274 ) ;
#240 = ORIENTED_EDGE ( 'NONE', *, *, #287, .F. ) ;
#241 = CARTESIAN_POINT ( 'NONE',  ( 0.000000000000000000, 0.000000000000000000, 70.00000000000000000 ) ) ;
#242 = CALENDAR_DATE ( 2020, 13, 12 ) ;
#243 = ORIENTED_EDGE ( 'NONE', *, *, #134, .T. ) ;
#244 = EDGE_LOOP ( 'NONE', ( #48, #221, #21, #289, #116, #264 ) ) ;
#245 = ORIENTED_EDGE ( 'NONE', *, *, #302, .T. ) ;
#246 = CARTESIAN_POINT ( 'NONE',  ( 0.000000000000000000, 0.000000000000000000, 96.00000000000000000 ) ) ;
#247 = CARTESIAN_POINT ( 'NONE',  ( 0.000000000000000000, 0.000000000000000000, 96.00000000000000000 ) ) ;
#248 = DIRECTION ( 'NONE',  ( 1.000000000000000000, 0.000000000000000000, 0.000000000000000000 ) ) ;
#249 = FACE_BOUND ( 'NONE', #223, .T. ) ;
#250 = FACE_OUTER_BOUND ( 'NONE', #125, .T. ) ;
#251 = CARTESIAN_POINT ( 'NONE',  ( 0.000000000000000000, 0.000000000000000000, -0.07010170464867528095 ) ) ;
#252 = FACE_OUTER_BOUND ( 'NONE', #51, .T. ) ;
#253 = LOCAL_TIME ( 13, 49, 19.00000000000000000, #65 ) ;
#254 = APPROVAL ( #263, 'UNSPECIFIED' ) ;
#255 = APPROVAL ( #139, 'UNSPECIFIED' ) ;
#256 = AXIS2_PLACEMENT_3D ( 'NONE', #303, #86, #109 ) ;
#257 = EDGE_CURVE ( 'NONE', #144, #122, #310, .T. ) ;
#258 = DIRECTION ( 'NONE',  ( 0.000000000000000000, -1.000000000000000000, 0.000000000000000000 ) ) ;
#259 = LINE ( 'NONE', #88, #220 ) ;
#260 = CARTESIAN_POINT ( 'NONE',  ( -1.499999999999996225, -4.743482370579657825, 96.00000000000000000 ) ) ;
#261 =( NAMED_UNIT ( * ) PLANE_ANGLE_UNIT ( ) SI_UNIT ( $, .RADIAN. ) );
#262 = VERTEX_POINT ( 'NONE', #13 ) ;
#263 = APPROVAL_STATUS ( 'not_yet_approved' ) ;
#264 = ORIENTED_EDGE ( 'NONE', *, *, #290, .T. ) ;
#265 = COORDINATED_UNIVERSAL_TIME_OFFSET ( 1, 0, .AHEAD. ) ;
#266 = ORIENTED_EDGE ( 'NONE', *, *, #168, .F. ) ;
#267 = VERTEX_POINT ( 'NONE', #213 ) ;
#268 = AXIS2_PLACEMENT_3D ( 'NONE', #219, #191, #317 ) ;
#269 = VECTOR ( 'NONE', #299, 1000.000000000000000 ) ;
#270 = FACE_OUTER_BOUND ( 'NONE', #47, .T. ) ;
#271 = DIRECTION ( 'NONE',  ( 1.000000000000000000, 0.000000000000000000, 0.000000000000000000 ) ) ;
#272 = FACE_OUTER_BOUND ( 'NONE', #148, .T. ) ;
#273 = CARTESIAN_POINT ( 'NONE',  ( 4.974999999999999645, 6.092617825758079932E-16, 96.00000000000000000 ) ) ;
#274 = DIRECTION ( 'NONE',  ( 0.5011783932434733524, 0.000000000000000000, -0.8653439883340556804 ) ) ;
#275 = CARTESIAN_POINT ( 'NONE',  ( 0.000000000000000000, 0.000000000000000000, 70.00000000000000000 ) ) ;
#276 = EDGE_CURVE ( 'NONE', #144, #267, #114, .T. ) ;
#277 = CIRCLE ( 'NONE', #103, 2.979999999999999982 ) ;
#278 = VECTOR ( 'NONE', #35, 1000.000000000000000 ) ;
#279 = CARTESIAN_POINT ( 'NONE',  ( -4.975000000000000533, 2.250014666574772448, 90.00000000000001421 ) ) ;
#280 = PERSON ( 'UNSPECIFIED', 'UNSPECIFIED', 'UNSPECIFIED', ('UNSPECIFIED'), ('UNSPECIFIED'), ('UNSPECIFIED') ) ;
#281 = CARTESIAN_POINT ( 'NONE',  ( 4.975000000000000533, -2.250014666574772448, 89.99999999999998579 ) ) ;
#282 = APPLICATION_PROTOCOL_DEFINITION ( 'international standard', 'config_control_design', 1994, #186 ) ;
#283 = LOCAL_TIME ( 13, 49, 19.00000000000000000, #100 ) ;
#284 = VERTEX_POINT ( 'NONE', #209 ) ;
#285 = VECTOR ( 'NONE', #301, 1000.000000000000000 ) ;
#286 = CLOSED_SHELL ( 'NONE', ( #113, #44, #102, #52, #309, #165, #143, #298, #55 ) ) ;
#287 = EDGE_CURVE ( 'NONE', #262, #313, #6, .T. ) ;
#288 = PERSON_AND_ORGANIZATION_ROLE ( 'creator' ) ;
#289 = ORIENTED_EDGE ( 'NONE', *, *, #216, .F. ) ;
#290 = EDGE_CURVE ( 'NONE', #313, #50, #78, .T. ) ;
#291 = APPLICATION_PROTOCOL_DEFINITION ( 'international standard', 'config_control_design', 1994, #306 ) ;
#292 = ORIENTED_EDGE ( 'NONE', *, *, #134, .F. ) ;
#293 = CARTESIAN_POINT ( 'NONE',  ( 4.975000000000000533, 2.250014666574772448, 89.99999999999998579 ) ) ;
#294 = DATE_AND_TIME ( #242, #177 ) ;
#295 = CARTESIAN_POINT ( 'NONE',  ( -1.499999999999999778, 4.743482370579661378, 96.00000000000000000 ) ) ;
#296 = CIRCLE ( 'NONE', #62, 2.979999999999999982 ) ;
#297 = VECTOR ( 'NONE', #230, 1000.000000000000000 ) ;
#298 = ADVANCED_FACE ( 'NONE', ( #308 ), #131, .T. ) ;
#299 = DIRECTION ( 'NONE',  ( -0.000000000000000000, -0.000000000000000000, -1.000000000000000000 ) ) ;
#300 = UNCERTAINTY_MEASURE_WITH_UNIT (LENGTH_MEASURE( 1.000000000000000082E-05 ), #16, 'distance_accuracy_value', 'NONE');
#301 = DIRECTION ( 'NONE',  ( 0.000000000000000000, 0.000000000000000000, 1.000000000000000000 ) ) ;
#302 = EDGE_CURVE ( 'NONE', #176, #284, #9, .T. ) ;
#303 = CARTESIAN_POINT ( 'NONE',  ( 0.000000000000000000, 0.000000000000000000, -0.07010170464867528095 ) ) ;
#304 = DIRECTION ( 'NONE',  ( -1.000000000000000000, 0.000000000000000000, 0.000000000000000000 ) ) ;
#305 = DIRECTION ( 'NONE',  ( 1.000000000000000000, 0.000000000000000000, 0.000000000000000000 ) ) ;
#306 = APPLICATION_CONTEXT ( 'configuration controlled 3d designs of mechanical parts and assemblies' ) ;
#307 = LINE ( 'NONE', #58, #278 ) ;
#308 = FACE_OUTER_BOUND ( 'NONE', #95, .T. ) ;
#309 = ADVANCED_FACE ( 'NONE', ( #60 ), #159, .T. ) ;
#310 =( BOUNDED_CURVE ( )  B_SPLINE_CURVE ( 3, ( #236, #89, #281, #66 ),
 .UNSPECIFIED., .F., .F. ) 
 B_SPLINE_CURVE_WITH_KNOTS ( ( 4, 4 ),
 ( 5.018662356857674922, 6.283185307179586232 ),
 .UNSPECIFIED. ) 
 CURVE ( )  GEOMETRIC_REPRESENTATION_ITEM ( )  RATIONAL_B_SPLINE_CURVE ( ( 1.000000000000000000, 0.8711287379846730516, 0.8711287379846730516, 1.000000000000000000 ) ) 
 REPRESENTATION_ITEM ( '' )  );
#311 = CARTESIAN_POINT ( 'NONE',  ( -1.499999999999999778, 4.743482370579661378, 96.00000000000000000 ) ) ;
#312 = CARTESIAN_POINT ( 'NONE',  ( -3.645307518481022857, 4.065085988697817676, 92.29587191053633433 ) ) ;
#313 = VERTEX_POINT ( 'NONE', #110 ) ;
#314 = DATE_TIME_ROLE ( 'classification_date' ) ;
#315 = MECHANICAL_CONTEXT ( 'NONE', #186, 'mechanical' ) ;
#316 = EDGE_CURVE ( 'NONE', #176, #72, #277, .T. ) ;
#317 = DIRECTION ( 'NONE',  ( 1.000000000000000000, 0.000000000000000000, 0.000000000000000000 ) ) ;
#318 = AXIS2_PLACEMENT_3D ( 'NONE', #212, #164, #167 ) ;
#319 = EDGE_CURVE ( 'NONE', #72, #176, #296, .T. ) ;
#320 = ORIENTED_EDGE ( 'NONE', *, *, #106, .F. ) ;
#321 = CALENDAR_DATE ( 2020, 13, 12 ) ;
#322 = ORIENTED_EDGE ( 'NONE', *, *, #319, .T. ) ;
#323 = CARTESIAN_POINT ( 'NONE',  ( 4.974999999999999645, 6.092617825758079932E-16, 90.00000000000000000 ) ) ;
#324 = PERSON_AND_ORGANIZATION ( #280, #17 ) ;
#325 = ORIENTED_EDGE ( 'NONE', *, *, #112, .F. ) ;
ENDSEC;
END-ISO-10303-21;
