ISO-10303-21;
HEADER;
FILE_DESCRIPTION (( 'STEP AP214' ),
    '1' );
FILE_NAME ('Entretoise.STEP',
    '2022-01-31T16:32:17',
    ( '' ),
    ( '' ),
    'SwSTEP 2.0',
    'SolidWorks 2020',
    '' );
FILE_SCHEMA (( 'AUTOMOTIVE_DESIGN' ));
ENDSEC;

DATA;
#1 = FACE_OUTER_BOUND ( 'NONE', #295, .T. ) ;
#2 = DIRECTION ( 'NONE',  ( 1.000000000000000000, 0.000000000000000000, 0.000000000000000000 ) ) ;
#3 = CYLINDRICAL_SURFACE ( 'NONE', #67, 7.500000000000000000 ) ;
#4 = AXIS2_PLACEMENT_3D ( 'NONE', #231, #25, #168 ) ;
#5 = VECTOR ( 'NONE', #359, 1000.000000000000000 ) ;
#6 = CARTESIAN_POINT ( 'NONE',  ( 0.000000000000000000, 0.000000000000000000, 50.00000000000000000 ) ) ;
#7 = ORIENTED_EDGE ( 'NONE', *, *, #97, .T. ) ;
#8 = DIRECTION ( 'NONE',  ( 1.000000000000000000, 0.000000000000000000, 0.000000000000000000 ) ) ;
#9 = VERTEX_POINT ( 'NONE', #156 ) ;
#10 = EDGE_CURVE ( 'NONE', #304, #355, #126, .T. ) ;
#11 = ORIENTED_EDGE ( 'NONE', *, *, #330, .F. ) ;
#12 = VECTOR ( 'NONE', #213, 1000.000000000000000 ) ;
#13 = EDGE_LOOP ( 'NONE', ( #303, #325 ) ) ;
#14 = ORIENTED_EDGE ( 'NONE', *, *, #10, .T. ) ;
#15 =( NAMED_UNIT ( * ) PLANE_ANGLE_UNIT ( ) SI_UNIT ( $, .RADIAN. ) );
#16 = VERTEX_POINT ( 'NONE', #188 ) ;
#17 = DIRECTION ( 'NONE',  ( 1.000000000000000000, 0.000000000000000000, 0.000000000000000000 ) ) ;
#18 = AXIS2_PLACEMENT_3D ( 'NONE', #225, #23, #105 ) ;
#19 = CARTESIAN_POINT ( 'NONE',  ( 0.000000000000000000, 0.000000000000000000, 0.000000000000000000 ) ) ;
#20 = FACE_OUTER_BOUND ( 'NONE', #247, .T. ) ;
#21 = ADVANCED_FACE ( 'NONE', ( #50 ), #226, .F. ) ;
#22 = DIRECTION ( 'NONE',  ( 0.000000000000000000, 0.000000000000000000, -1.000000000000000000 ) ) ;
#23 = DIRECTION ( 'NONE',  ( 0.000000000000000000, 0.000000000000000000, -1.000000000000000000 ) ) ;
#24 = CIRCLE ( 'NONE', #166, 9.500000000000000000 ) ;
#25 = DIRECTION ( 'NONE',  ( -0.000000000000000000, -0.000000000000000000, 1.000000000000000000 ) ) ;
#26 = EDGE_CURVE ( 'NONE', #122, #337, #348, .T. ) ;
#27 = CYLINDRICAL_SURFACE ( 'NONE', #305, 10.49999999999999822 ) ;
#28 = CARTESIAN_POINT ( 'NONE',  ( -7.500000000000000000, 0.000000000000000000, 0.000000000000000000 ) ) ;
#29 = VECTOR ( 'NONE', #281, 1000.000000000000000 ) ;
#30 = LINE ( 'NONE', #139, #40 ) ;
#31 = DIRECTION ( 'NONE',  ( -0.000000000000000000, -0.000000000000000000, -1.000000000000000000 ) ) ;
#32 = CARTESIAN_POINT ( 'NONE',  ( 0.000000000000000000, 0.000000000000000000, 49.00000000000000000 ) ) ;
#33 = VERTEX_POINT ( 'NONE', #189 ) ;
#34 = AXIS2_PLACEMENT_3D ( 'NONE', #373, #108, #371 ) ;
#35 = CARTESIAN_POINT ( 'NONE',  ( 7.500000000000000000, 9.184850993605147944E-16, 50.00000000000000000 ) ) ;
#36 = PRESENTATION_STYLE_ASSIGNMENT (( #294 ) ) ;
#37 = EDGE_LOOP ( 'NONE', ( #351, #323, #365, #239 ) ) ;
#38 = DIRECTION ( 'NONE',  ( 1.000000000000000000, 0.000000000000000000, 0.000000000000000000 ) ) ;
#39 = ORIENTED_EDGE ( 'NONE', *, *, #360, .F. ) ;
#40 = VECTOR ( 'NONE', #170, 1000.000000000000000 ) ;
#41 = FACE_OUTER_BOUND ( 'NONE', #13, .T. ) ;
#42 = ORIENTED_EDGE ( 'NONE', *, *, #338, .T. ) ;
#43 = UNCERTAINTY_MEASURE_WITH_UNIT (LENGTH_MEASURE( 1.000000000000000082E-05 ), #117, 'distance_accuracy_value', 'NONE');
#44 = VERTEX_POINT ( 'NONE', #251 ) ;
#45 = ORIENTED_EDGE ( 'NONE', *, *, #136, .F. ) ;
#46 = DIRECTION ( 'NONE',  ( 0.000000000000000000, 0.000000000000000000, 1.000000000000000000 ) ) ;
#47 = CARTESIAN_POINT ( 'NONE',  ( 0.000000000000000000, 0.000000000000000000, 0.000000000000000000 ) ) ;
#48 = DIRECTION ( 'NONE',  ( 0.000000000000000000, 0.000000000000000000, 1.000000000000000000 ) ) ;
#49 = FACE_OUTER_BOUND ( 'NONE', #150, .T. ) ;
#50 = FACE_OUTER_BOUND ( 'NONE', #102, .T. ) ;
#51 = EDGE_CURVE ( 'NONE', #207, #181, #103, .T. ) ;
#52 = CARTESIAN_POINT ( 'NONE',  ( 0.000000000000000000, 0.000000000000000000, 1.000000000000000000 ) ) ;
#53 = CIRCLE ( 'NONE', #315, 9.500000000000000000 ) ;
#54 = DIRECTION ( 'NONE',  ( 0.000000000000000000, 0.000000000000000000, 1.000000000000000000 ) ) ;
#55 = FACE_BOUND ( 'NONE', #215, .T. ) ;
#56 = DIRECTION ( 'NONE',  ( -0.000000000000000000, -0.000000000000000000, 1.000000000000000000 ) ) ;
#57 = CARTESIAN_POINT ( 'NONE',  ( 7.500000000000000000, 9.184850993605147944E-16, 50.00000000000000000 ) ) ;
#58 = DIRECTION ( 'NONE',  ( 0.000000000000000000, 0.000000000000000000, 1.000000000000000000 ) ) ;
#59 = ADVANCED_FACE ( 'NONE', ( #162, #20 ), #250, .T. ) ;
#60 = DIRECTION ( 'NONE',  ( -1.000000000000000000, 0.000000000000000000, 0.000000000000000000 ) ) ;
#61 = ORIENTED_EDGE ( 'NONE', *, *, #343, .T. ) ;
#62 = CIRCLE ( 'NONE', #186, 7.500000000000000000 ) ;
#63 = SURFACE_STYLE_FILL_AREA ( #266 ) ;
#64 = ORIENTED_EDGE ( 'NONE', *, *, #10, .F. ) ;
#65 = DIRECTION ( 'NONE',  ( -0.000000000000000000, -0.000000000000000000, -1.000000000000000000 ) ) ;
#66 = CARTESIAN_POINT ( 'NONE',  ( 0.000000000000000000, 0.000000000000000000, 1.000000000000000000 ) ) ;
#67 = AXIS2_PLACEMENT_3D ( 'NONE', #285, #31, #107 ) ;
#68 = SURFACE_STYLE_FILL_AREA ( #161 ) ;
#69 =( LENGTH_UNIT ( ) NAMED_UNIT ( * ) SI_UNIT ( .MILLI., .METRE. ) );
#70 = ORIENTED_EDGE ( 'NONE', *, *, #88, .T. ) ;
#71 =( NAMED_UNIT ( * ) PLANE_ANGLE_UNIT ( ) SI_UNIT ( $, .RADIAN. ) );
#72 = ADVANCED_FACE ( 'NONE', ( #49 ), #370, .T. ) ;
#73 = EDGE_LOOP ( 'NONE', ( #241, #276 ) ) ;
#74 = VECTOR ( 'NONE', #104, 1000.000000000000000 ) ;
#75 = ORIENTED_EDGE ( 'NONE', *, *, #232, .F. ) ;
#76 =( NAMED_UNIT ( * ) SI_UNIT ( $, .STERADIAN. ) SOLID_ANGLE_UNIT ( ) );
#77 = ORIENTED_EDGE ( 'NONE', *, *, #100, .F. ) ;
#78 = CYLINDRICAL_SURFACE ( 'NONE', #4, 9.500000000000000000 ) ;
#79 = DIRECTION ( 'NONE',  ( 1.000000000000000000, 0.000000000000000000, 0.000000000000000000 ) ) ;
#80 = VECTOR ( 'NONE', #202, 1000.000000000000000 ) ;
#81 = CIRCLE ( 'NONE', #152, 7.500000000000000000 ) ;
#82 = CARTESIAN_POINT ( 'NONE',  ( 0.000000000000000000, 0.000000000000000000, 49.00000000000000000 ) ) ;
#83 = DIRECTION ( 'NONE',  ( -0.000000000000000000, -0.000000000000000000, -1.000000000000000000 ) ) ;
#84 = EDGE_CURVE ( 'NONE', #90, #304, #277, .T. ) ;
#85 = FACE_OUTER_BOUND ( 'NONE', #274, .T. ) ;
#86 = AXIS2_PLACEMENT_3D ( 'NONE', #101, #133, #158 ) ;
#87 = CYLINDRICAL_SURFACE ( 'NONE', #291, 9.500000000000000000 ) ;
#88 = EDGE_CURVE ( 'NONE', #33, #44, #211, .T. ) ;
#89 = CARTESIAN_POINT ( 'NONE',  ( -7.500000000000000000, 0.000000000000000000, 50.00000000000000000 ) ) ;
#90 = VERTEX_POINT ( 'NONE', #339 ) ;
#91 = CARTESIAN_POINT ( 'NONE',  ( 9.500000000000000000, 1.163414459189985485E-15, 0.000000000000000000 ) ) ;
#92 = ORIENTED_EDGE ( 'NONE', *, *, #88, .F. ) ;
#93 = AXIS2_PLACEMENT_3D ( 'NONE', #209, #94, #38 ) ;
#94 = DIRECTION ( 'NONE',  ( 0.000000000000000000, 0.000000000000000000, 1.000000000000000000 ) ) ;
#95 = ORIENTED_EDGE ( 'NONE', *, *, #169, .T. ) ;
#96 = ORIENTED_EDGE ( 'NONE', *, *, #343, .F. ) ;
#97 = EDGE_CURVE ( 'NONE', #299, #267, #143, .T. ) ;
#98 = ORIENTED_EDGE ( 'NONE', *, *, #169, .F. ) ;
#99 = DIRECTION ( 'NONE',  ( -1.000000000000000000, 0.000000000000000000, 0.000000000000000000 ) ) ;
#100 = EDGE_CURVE ( 'NONE', #181, #207, #62, .T. ) ;
#101 = CARTESIAN_POINT ( 'NONE',  ( 0.000000000000000000, 0.000000000000000000, 50.00000000000000000 ) ) ;
#102 = EDGE_LOOP ( 'NONE', ( #185, #334, #77, #98 ) ) ;
#103 = CIRCLE ( 'NONE', #199, 7.500000000000000000 ) ;
#104 = DIRECTION ( 'NONE',  ( -0.000000000000000000, -0.000000000000000000, -1.000000000000000000 ) ) ;
#105 = DIRECTION ( 'NONE',  ( -1.000000000000000000, 0.000000000000000000, 0.000000000000000000 ) ) ;
#106 = EDGE_CURVE ( 'NONE', #267, #9, #344, .T. ) ;
#107 = DIRECTION ( 'NONE',  ( -1.000000000000000000, 0.000000000000000000, 0.000000000000000000 ) ) ;
#108 = DIRECTION ( 'NONE',  ( 0.000000000000000000, 0.000000000000000000, -1.000000000000000000 ) ) ;
#109 = AXIS2_PLACEMENT_3D ( 'NONE', #6, #350, #352 ) ;
#110 = CARTESIAN_POINT ( 'NONE',  ( -9.500000000000000000, 1.163414459189985485E-15, 49.00000000000000000 ) ) ;
#111 = DIRECTION ( 'NONE',  ( 1.000000000000000000, 0.000000000000000000, 0.000000000000000000 ) ) ;
#112 = DIRECTION ( 'NONE',  ( 0.000000000000000000, 0.000000000000000000, 1.000000000000000000 ) ) ;
#113 = DIRECTION ( 'NONE',  ( 0.000000000000000000, 0.000000000000000000, 1.000000000000000000 ) ) ;
#114 = ORIENTED_EDGE ( 'NONE', *, *, #120, .T. ) ;
#115 = DIRECTION ( 'NONE',  ( 1.000000000000000000, 0.000000000000000000, 0.000000000000000000 ) ) ;
#116 = EDGE_LOOP ( 'NONE', ( #75, #196, #95, #217 ) ) ;
#117 =( LENGTH_UNIT ( ) NAMED_UNIT ( * ) SI_UNIT ( .MILLI., .METRE. ) );
#118 = ORIENTED_EDGE ( 'NONE', *, *, #302, .T. ) ;
#119 = VECTOR ( 'NONE', #317, 1000.000000000000000 ) ;
#120 = EDGE_CURVE ( 'NONE', #44, #122, #233, .T. ) ;
#121 = PLANE ( 'NONE',  #336 ) ;
#122 = VERTEX_POINT ( 'NONE', #261 ) ;
#123 = CARTESIAN_POINT ( 'NONE',  ( 0.000000000000000000, 0.000000000000000000, 50.00000000000000000 ) ) ;
#124 = ORIENTED_EDGE ( 'NONE', *, *, #84, .F. ) ;
#125 = CARTESIAN_POINT ( 'NONE',  ( 0.000000000000000000, 0.000000000000000000, 1.000000000000000000 ) ) ;
#126 = CIRCLE ( 'NONE', #204, 10.49999999999999822 ) ;
#127 = DIRECTION ( 'NONE',  ( -1.000000000000000000, 0.000000000000000000, 0.000000000000000000 ) ) ;
#128 = DIRECTION ( 'NONE',  ( 1.000000000000000000, 0.000000000000000000, 0.000000000000000000 ) ) ;
#129 = ORIENTED_EDGE ( 'NONE', *, *, #174, .F. ) ;
#130 = ORIENTED_EDGE ( 'NONE', *, *, #100, .T. ) ;
#131 = EDGE_CURVE ( 'NONE', #357, #306, #172, .T. ) ;
#132 = AXIS2_PLACEMENT_3D ( 'NONE', #123, #296, #8 ) ;
#133 = DIRECTION ( 'NONE',  ( -0.000000000000000000, -0.000000000000000000, -1.000000000000000000 ) ) ;
#134 = DIRECTION ( 'NONE',  ( -1.000000000000000000, 0.000000000000000000, 0.000000000000000000 ) ) ;
#135 = CYLINDRICAL_SURFACE ( 'NONE', #275, 9.500000000000000000 ) ;
#136 = EDGE_CURVE ( 'NONE', #337, #122, #53, .T. ) ;
#137 = DIRECTION ( 'NONE',  ( 0.000000000000000000, 0.000000000000000000, -1.000000000000000000 ) ) ;
#138 = AXIS2_PLACEMENT_3D ( 'NONE', #318, #58, #175 ) ;
#139 = CARTESIAN_POINT ( 'NONE',  ( -7.500000000000000000, 0.000000000000000000, 50.00000000000000000 ) ) ;
#140 = DIRECTION ( 'NONE',  ( 0.000000000000000000, 0.000000000000000000, -1.000000000000000000 ) ) ;
#141 = CARTESIAN_POINT ( 'NONE',  ( -9.500000000000000000, 1.163414459189985485E-15, 49.00000000000000000 ) ) ;
#142 = ORIENTED_EDGE ( 'NONE', *, *, #106, .T. ) ;
#143 = CIRCLE ( 'NONE', #151, 9.500000000000000000 ) ;
#144 =( GEOMETRIC_REPRESENTATION_CONTEXT ( 3 ) GLOBAL_UNCERTAINTY_ASSIGNED_CONTEXT ( ( #198 ) ) GLOBAL_UNIT_ASSIGNED_CONTEXT ( ( #272, #15, #76 ) ) REPRESENTATION_CONTEXT ( 'NONE', 'WORKASPACE' ) );
#145 = PLANE ( 'NONE',  #310 ) ;
#146 = ORIENTED_EDGE ( 'NONE', *, *, #148, .T. ) ;
#147 = ORIENTED_EDGE ( 'NONE', *, *, #372, .F. ) ;
#148 = EDGE_CURVE ( 'NONE', #299, #16, #314, .T. ) ;
#149 = CARTESIAN_POINT ( 'NONE',  ( 10.49999999999999822, 1.285879139104720633E-15, 50.00000000000000000 ) ) ;
#150 = EDGE_LOOP ( 'NONE', ( #328, #214, #353, #333 ) ) ;
#151 = AXIS2_PLACEMENT_3D ( 'NONE', #300, #112, #2 ) ;
#152 = AXIS2_PLACEMENT_3D ( 'NONE', #176, #46, #361 ) ;
#153 = CARTESIAN_POINT ( 'NONE',  ( 9.500000000000000000, 0.000000000000000000, 49.00000000000000000 ) ) ;
#154 = ORIENTED_EDGE ( 'NONE', *, *, #97, .F. ) ;
#155 = EDGE_CURVE ( 'NONE', #90, #273, #283, .T. ) ;
#156 = CARTESIAN_POINT ( 'NONE',  ( 9.500000000000000000, 0.000000000000000000, 50.00000000000000000 ) ) ;
#157 = CARTESIAN_POINT ( 'NONE',  ( 9.500000000000000000, 1.163414459189985485E-15, 1.000000000000000000 ) ) ;
#158 = DIRECTION ( 'NONE',  ( -1.000000000000000000, 0.000000000000000000, 0.000000000000000000 ) ) ;
#159 = VECTOR ( 'NONE', #83, 1000.000000000000000 ) ;
#160 = AXIS2_PLACEMENT_3D ( 'NONE', #165, #278, #164 ) ;
#161 = FILL_AREA_STYLE ('',( #246 ) ) ;
#162 = FACE_BOUND ( 'NONE', #263, .T. ) ;
#163 = SHAPE_DEFINITION_REPRESENTATION ( #249, #332 ) ;
#164 = DIRECTION ( 'NONE',  ( -1.000000000000000000, 0.000000000000000000, 0.000000000000000000 ) ) ;
#165 = CARTESIAN_POINT ( 'NONE',  ( 0.000000000000000000, 0.000000000000000000, 50.00000000000000000 ) ) ;
#166 = AXIS2_PLACEMENT_3D ( 'NONE', #52, #137, #309 ) ;
#167 = DIRECTION ( 'NONE',  ( -0.000000000000000000, -0.000000000000000000, -1.000000000000000000 ) ) ;
#168 = DIRECTION ( 'NONE',  ( 1.000000000000000000, 0.000000000000000000, 0.000000000000000000 ) ) ;
#169 = EDGE_CURVE ( 'NONE', #357, #181, #30, .T. ) ;
#170 = DIRECTION ( 'NONE',  ( -0.000000000000000000, -0.000000000000000000, -1.000000000000000000 ) ) ;
#171 = CARTESIAN_POINT ( 'NONE',  ( 0.000000000000000000, 0.000000000000000000, 50.00000000000000000 ) ) ;
#172 = CIRCLE ( 'NONE', #234, 7.500000000000000000 ) ;
#173 = DIRECTION ( 'NONE',  ( 0.000000000000000000, 0.000000000000000000, 1.000000000000000000 ) ) ;
#174 = EDGE_CURVE ( 'NONE', #44, #33, #24, .T. ) ;
#175 = DIRECTION ( 'NONE',  ( 1.000000000000000000, 0.000000000000000000, -0.000000000000000000 ) ) ;
#176 = CARTESIAN_POINT ( 'NONE',  ( 0.000000000000000000, 0.000000000000000000, 50.00000000000000000 ) ) ;
#177 = ORIENTED_EDGE ( 'NONE', *, *, #313, .F. ) ;
#178 = AXIS2_PLACEMENT_3D ( 'NONE', #82, #56, #197 ) ;
#179 = AXIS2_PLACEMENT_3D ( 'NONE', #19, #48, #128 ) ;
#180 = SURFACE_SIDE_STYLE ('',( #63 ) ) ;
#181 = VERTEX_POINT ( 'NONE', #28 ) ;
#182 = ADVANCED_FACE ( 'NONE', ( #1 ), #78, .T. ) ;
#183 = ORIENTED_EDGE ( 'NONE', *, *, #106, .F. ) ;
#184 = DIRECTION ( 'NONE',  ( 1.000000000000000000, 0.000000000000000000, -0.000000000000000000 ) ) ;
#185 = ORIENTED_EDGE ( 'NONE', *, *, #131, .T. ) ;
#186 = AXIS2_PLACEMENT_3D ( 'NONE', #230, #173, #257 ) ;
#187 =( NAMED_UNIT ( * ) SI_UNIT ( $, .STERADIAN. ) SOLID_ANGLE_UNIT ( ) );
#188 = CARTESIAN_POINT ( 'NONE',  ( -9.500000000000000000, 1.163414459189985485E-15, 50.00000000000000000 ) ) ;
#189 = CARTESIAN_POINT ( 'NONE',  ( 9.500000000000000000, 1.163414459189985485E-15, 1.000000000000000000 ) ) ;
#190 = DIRECTION ( 'NONE',  ( 0.000000000000000000, 0.000000000000000000, -1.000000000000000000 ) ) ;
#191 = STYLED_ITEM ( 'NONE', ( #36 ), #358 ) ;
#192 = PRODUCT_CONTEXT ( 'NONE', #228, 'mechanical' ) ;
#193 = EDGE_LOOP ( 'NONE', ( #289, #7, #142, #96 ) ) ;
#194 = ADVANCED_FACE ( 'NONE', ( #229 ), #200, .T. ) ;
#195 =( NAMED_UNIT ( * ) SI_UNIT ( $, .STERADIAN. ) SOLID_ANGLE_UNIT ( ) );
#196 = ORIENTED_EDGE ( 'NONE', *, *, #372, .T. ) ;
#197 = DIRECTION ( 'NONE',  ( 1.000000000000000000, 0.000000000000000000, 0.000000000000000000 ) ) ;
#198 = UNCERTAINTY_MEASURE_WITH_UNIT (LENGTH_MEASURE( 1.000000000000000082E-05 ), #272, 'distance_accuracy_value', 'NONE');
#199 = AXIS2_PLACEMENT_3D ( 'NONE', #47, #362, #17 ) ;
#200 = CYLINDRICAL_SURFACE ( 'NONE', #178, 9.500000000000000000 ) ;
#201 = CARTESIAN_POINT ( 'NONE',  ( 0.000000000000000000, 0.000000000000000000, 1.000000000000000000 ) ) ;
#202 = DIRECTION ( 'NONE',  ( -0.000000000000000000, -0.000000000000000000, 1.000000000000000000 ) ) ;
#203 = FACE_OUTER_BOUND ( 'NONE', #37, .T. ) ;
#204 = AXIS2_PLACEMENT_3D ( 'NONE', #125, #190, #127 ) ;
#205 = FACE_OUTER_BOUND ( 'NONE', #271, .T. ) ;
#206 = DIRECTION ( 'NONE',  ( 0.000000000000000000, 0.000000000000000000, 1.000000000000000000 ) ) ;
#207 = VERTEX_POINT ( 'NONE', #346 ) ;
#208 = ADVANCED_FACE ( 'NONE', ( #85 ), #27, .T. ) ;
#209 = CARTESIAN_POINT ( 'NONE',  ( 0.000000000000000000, 0.000000000000000000, 49.00000000000000000 ) ) ;
#210 = EDGE_LOOP ( 'NONE', ( #177, #154 ) ) ;
#211 = CIRCLE ( 'NONE', #18, 9.500000000000000000 ) ;
#212 =( GEOMETRIC_REPRESENTATION_CONTEXT ( 3 ) GLOBAL_UNCERTAINTY_ASSIGNED_CONTEXT ( ( #286 ) ) GLOBAL_UNIT_ASSIGNED_CONTEXT ( ( #69, #71, #187 ) ) REPRESENTATION_CONTEXT ( 'NONE', 'WORKASPACE' ) );
#213 = DIRECTION ( 'NONE',  ( -0.000000000000000000, -0.000000000000000000, -1.000000000000000000 ) ) ;
#214 = ORIENTED_EDGE ( 'NONE', *, *, #155, .F. ) ;
#215 = EDGE_LOOP ( 'NONE', ( #219, #147 ) ) ;
#216 =( NAMED_UNIT ( * ) PLANE_ANGLE_UNIT ( ) SI_UNIT ( $, .RADIAN. ) );
#217 = ORIENTED_EDGE ( 'NONE', *, *, #51, .F. ) ;
#218 = PRESENTATION_STYLE_ASSIGNMENT (( #243 ) ) ;
#219 = ORIENTED_EDGE ( 'NONE', *, *, #131, .F. ) ;
#220 = APPLICATION_PROTOCOL_DEFINITION ( 'draft international standard', 'automotive_design', 1998, #228 ) ;
#221 = ADVANCED_FACE ( 'NONE', ( #203 ), #135, .T. ) ;
#222 = ORIENTED_EDGE ( 'NONE', *, *, #302, .F. ) ;
#223 = PRESENTATION_LAYER_ASSIGNMENT (  '', '', ( #191 ) ) ;
#224 = LINE ( 'NONE', #157, #5 ) ;
#225 = CARTESIAN_POINT ( 'NONE',  ( 0.000000000000000000, 0.000000000000000000, 1.000000000000000000 ) ) ;
#226 = CYLINDRICAL_SURFACE ( 'NONE', #86, 7.500000000000000000 ) ;
#227 = DIRECTION ( 'NONE',  ( -1.000000000000000000, 0.000000000000000000, 0.000000000000000000 ) ) ;
#228 = APPLICATION_CONTEXT ( 'automotive_design' ) ;
#229 = FACE_OUTER_BOUND ( 'NONE', #193, .T. ) ;
#230 = CARTESIAN_POINT ( 'NONE',  ( 0.000000000000000000, 0.000000000000000000, 0.000000000000000000 ) ) ;
#231 = CARTESIAN_POINT ( 'NONE',  ( 0.000000000000000000, 0.000000000000000000, 49.00000000000000000 ) ) ;
#232 = EDGE_CURVE ( 'NONE', #306, #207, #280, .T. ) ;
#233 = LINE ( 'NONE', #340, #159 ) ;
#234 = AXIS2_PLACEMENT_3D ( 'NONE', #345, #260, #111 ) ;
#235 = FACE_OUTER_BOUND ( 'NONE', #293, .T. ) ;
#236 = ORIENTED_EDGE ( 'NONE', *, *, #237, .T. ) ;
#237 = EDGE_CURVE ( 'NONE', #355, #304, #252, .T. ) ;
#238 = CARTESIAN_POINT ( 'NONE',  ( -10.49999999999999822, 0.000000000000000000, 1.000000000000000000 ) ) ;
#239 = ORIENTED_EDGE ( 'NONE', *, *, #120, .F. ) ;
#240 = CLOSED_SHELL ( 'NONE', ( #221, #182, #21, #208, #72, #287, #248, #242, #326, #194, #59, #308 ) ) ;
#241 = ORIENTED_EDGE ( 'NONE', *, *, #26, .T. ) ;
#242 = ADVANCED_FACE ( 'NONE', ( #312 ), #3, .F. ) ;
#243 = SURFACE_STYLE_USAGE ( .BOTH. , #331 ) ;
#244 = DIRECTION ( 'NONE',  ( 0.000000000000000000, 0.000000000000000000, -1.000000000000000000 ) ) ;
#245 = AXIS2_PLACEMENT_3D ( 'NONE', #311, #54, #79 ) ;
#246 = FILL_AREA_STYLE_COLOUR ( '', #292 ) ;
#247 = EDGE_LOOP ( 'NONE', ( #14, #236 ) ) ;
#248 = ADVANCED_FACE ( 'NONE', ( #55, #205 ), #121, .T. ) ;
#249 = PRODUCT_DEFINITION_SHAPE ( 'NONE', 'NONE',  #258 ) ;
#250 = PLANE ( 'NONE',  #374 ) ;
#251 = CARTESIAN_POINT ( 'NONE',  ( -9.500000000000000000, 0.000000000000000000, 1.000000000000000000 ) ) ;
#252 = CIRCLE ( 'NONE', #34, 10.49999999999999822 ) ;
#253 = CARTESIAN_POINT ( 'NONE',  ( 0.000000000000000000, 0.000000000000000000, 0.000000000000000000 ) ) ;
#254 = DIRECTION ( 'NONE',  ( -0.000000000000000000, -0.000000000000000000, -1.000000000000000000 ) ) ;
#255 = DIRECTION ( 'NONE',  ( -1.000000000000000000, 0.000000000000000000, 0.000000000000000000 ) ) ;
#256 = CIRCLE ( 'NONE', #93, 9.500000000000000000 ) ;
#257 = DIRECTION ( 'NONE',  ( 1.000000000000000000, 0.000000000000000000, 0.000000000000000000 ) ) ;
#258 = PRODUCT_DEFINITION ( 'UNKNOWN', '', #342, #347 ) ;
#259 = APPLICATION_CONTEXT ( 'automotive_design' ) ;
#260 = DIRECTION ( 'NONE',  ( 0.000000000000000000, 0.000000000000000000, 1.000000000000000000 ) ) ;
#261 = CARTESIAN_POINT ( 'NONE',  ( -9.500000000000000000, 0.000000000000000000, 0.000000000000000000 ) ) ;
#262 = LINE ( 'NONE', #149, #12 ) ;
#263 = EDGE_LOOP ( 'NONE', ( #129, #92 ) ) ;
#264 = PRODUCT_RELATED_PRODUCT_CATEGORY ( 'part', '', ( #301 ) ) ;
#265 = FACE_BOUND ( 'NONE', #210, .T. ) ;
#266 = FILL_AREA_STYLE ('',( #268 ) ) ;
#267 = VERTEX_POINT ( 'NONE', #153 ) ;
#268 = FILL_AREA_STYLE_COLOUR ( '', #322 ) ;
#269 = MECHANICAL_DESIGN_GEOMETRIC_PRESENTATION_REPRESENTATION (  '', ( #191 ), #363 ) ;
#270 = MECHANICAL_DESIGN_GEOMETRIC_PRESENTATION_REPRESENTATION (  '', ( #316 ), #212 ) ;
#271 = EDGE_LOOP ( 'NONE', ( #118, #61 ) ) ;
#272 =( LENGTH_UNIT ( ) NAMED_UNIT ( * ) SI_UNIT ( .MILLI., .METRE. ) );
#273 = VERTEX_POINT ( 'NONE', #349 ) ;
#274 = EDGE_LOOP ( 'NONE', ( #11, #42, #64, #124 ) ) ;
#275 = AXIS2_PLACEMENT_3D ( 'NONE', #201, #254, #227 ) ;
#276 = ORIENTED_EDGE ( 'NONE', *, *, #136, .T. ) ;
#277 = LINE ( 'NONE', #367, #74 ) ;
#278 = DIRECTION ( 'NONE',  ( -0.000000000000000000, -0.000000000000000000, -1.000000000000000000 ) ) ;
#279 = CIRCLE ( 'NONE', #132, 9.500000000000000000 ) ;
#280 = LINE ( 'NONE', #57, #119 ) ;
#281 = DIRECTION ( 'NONE',  ( -0.000000000000000000, -0.000000000000000000, 1.000000000000000000 ) ) ;
#282 = CARTESIAN_POINT ( 'NONE',  ( 0.000000000000000000, 0.000000000000000000, 0.000000000000000000 ) ) ;
#283 = CIRCLE ( 'NONE', #245, 10.49999999999999822 ) ;
#284 = CARTESIAN_POINT ( 'NONE',  ( 9.500000000000000000, 0.000000000000000000, 49.00000000000000000 ) ) ;
#285 = CARTESIAN_POINT ( 'NONE',  ( 0.000000000000000000, 0.000000000000000000, 50.00000000000000000 ) ) ;
#286 = UNCERTAINTY_MEASURE_WITH_UNIT (LENGTH_MEASURE( 1.000000000000000082E-05 ), #69, 'distance_accuracy_value', 'NONE');
#287 = ADVANCED_FACE ( 'NONE', ( #324, #327 ), #145, .F. ) ;
#288 = CARTESIAN_POINT ( 'NONE',  ( 0.000000000000000000, 0.000000000000000000, 50.00000000000000000 ) ) ;
#289 = ORIENTED_EDGE ( 'NONE', *, *, #148, .F. ) ;
#290 = DIRECTION ( 'NONE',  ( 1.000000000000000000, 0.000000000000000000, -0.000000000000000000 ) ) ;
#291 = AXIS2_PLACEMENT_3D ( 'NONE', #66, #65, #60 ) ;
#292 = COLOUR_RGB ( '',0.9882352941176471006, 0.7372549019607843590, 0.5176470588235293491 ) ;
#293 = EDGE_LOOP ( 'NONE', ( #39, #70, #114, #45 ) ) ;
#294 = SURFACE_STYLE_USAGE ( .BOTH. , #180 ) ;
#295 = EDGE_LOOP ( 'NONE', ( #335, #146, #222, #183 ) ) ;
#296 = DIRECTION ( 'NONE',  ( 0.000000000000000000, 0.000000000000000000, 1.000000000000000000 ) ) ;
#297 = ORIENTED_EDGE ( 'NONE', *, *, #51, .T. ) ;
#298 = CARTESIAN_POINT ( 'NONE',  ( 0.000000000000000000, 0.000000000000000000, 0.000000000000000000 ) ) ;
#299 = VERTEX_POINT ( 'NONE', #141 ) ;
#300 = CARTESIAN_POINT ( 'NONE',  ( 0.000000000000000000, 0.000000000000000000, 49.00000000000000000 ) ) ;
#301 = PRODUCT ( 'Entretoise', 'Entretoise', '', ( #192 ) ) ;
#302 = EDGE_CURVE ( 'NONE', #9, #16, #279, .T. ) ;
#303 = ORIENTED_EDGE ( 'NONE', *, *, #155, .T. ) ;
#304 = VERTEX_POINT ( 'NONE', #238 ) ;
#305 = AXIS2_PLACEMENT_3D ( 'NONE', #171, #167, #255 ) ;
#306 = VERTEX_POINT ( 'NONE', #35 ) ;
#307 = CARTESIAN_POINT ( 'NONE',  ( 0.000000000000000000, 0.000000000000000000, 1.000000000000000000 ) ) ;
#308 = ADVANCED_FACE ( 'NONE', ( #235 ), #87, .T. ) ;
#309 = DIRECTION ( 'NONE',  ( -1.000000000000000000, 0.000000000000000000, 0.000000000000000000 ) ) ;
#310 = AXIS2_PLACEMENT_3D ( 'NONE', #298, #206, #184 ) ;
#311 = CARTESIAN_POINT ( 'NONE',  ( 0.000000000000000000, 0.000000000000000000, 49.00000000000000000 ) ) ;
#312 = FACE_OUTER_BOUND ( 'NONE', #116, .T. ) ;
#313 = EDGE_CURVE ( 'NONE', #267, #299, #256, .T. ) ;
#314 = LINE ( 'NONE', #110, #80 ) ;
#315 = AXIS2_PLACEMENT_3D ( 'NONE', #282, #140, #134 ) ;
#316 = STYLED_ITEM ( 'NONE', ( #218 ), #332 ) ;
#317 = DIRECTION ( 'NONE',  ( -0.000000000000000000, -0.000000000000000000, -1.000000000000000000 ) ) ;
#318 = CARTESIAN_POINT ( 'NONE',  ( 0.000000000000000000, 0.000000000000000000, 49.00000000000000000 ) ) ;
#319 = DIRECTION ( 'NONE',  ( 0.000000000000000000, 0.000000000000000000, 1.000000000000000000 ) ) ;
#320 = EDGE_LOOP ( 'NONE', ( #130, #297 ) ) ;
#321 = CARTESIAN_POINT ( 'NONE',  ( 10.49999999999999822, 1.285879139104720633E-15, 1.000000000000000000 ) ) ;
#322 = COLOUR_RGB ( '',0.9882352941176471006, 0.7372549019607843590, 0.5176470588235293491 ) ;
#323 = ORIENTED_EDGE ( 'NONE', *, *, #360, .T. ) ;
#324 = FACE_BOUND ( 'NONE', #320, .T. ) ;
#325 = ORIENTED_EDGE ( 'NONE', *, *, #330, .T. ) ;
#326 = ADVANCED_FACE ( 'NONE', ( #265, #41 ), #356, .T. ) ;
#327 = FACE_OUTER_BOUND ( 'NONE', #73, .T. ) ;
#328 = ORIENTED_EDGE ( 'NONE', *, *, #338, .F. ) ;
#329 = AXIS2_PLACEMENT_3D ( 'NONE', #253, #244, #99 ) ;
#330 = EDGE_CURVE ( 'NONE', #273, #90, #368, .T. ) ;
#331 = SURFACE_SIDE_STYLE ('',( #68 ) ) ;
#332 = ADVANCED_BREP_SHAPE_REPRESENTATION ( 'Entretoise', ( #358, #179 ), #144 ) ;
#333 = ORIENTED_EDGE ( 'NONE', *, *, #237, .F. ) ;
#334 = ORIENTED_EDGE ( 'NONE', *, *, #232, .T. ) ;
#335 = ORIENTED_EDGE ( 'NONE', *, *, #313, .T. ) ;
#336 = AXIS2_PLACEMENT_3D ( 'NONE', #288, #319, #290 ) ;
#337 = VERTEX_POINT ( 'NONE', #91 ) ;
#338 = EDGE_CURVE ( 'NONE', #273, #355, #262, .T. ) ;
#339 = CARTESIAN_POINT ( 'NONE',  ( -10.49999999999999822, 0.000000000000000000, 49.00000000000000000 ) ) ;
#340 = CARTESIAN_POINT ( 'NONE',  ( -9.500000000000000000, 0.000000000000000000, 1.000000000000000000 ) ) ;
#341 = AXIS2_PLACEMENT_3D ( 'NONE', #32, #113, #115 ) ;
#342 = PRODUCT_DEFINITION_FORMATION_WITH_SPECIFIED_SOURCE ( 'ANY', '', #301, .NOT_KNOWN. ) ;
#343 = EDGE_CURVE ( 'NONE', #16, #9, #354, .T. ) ;
#344 = LINE ( 'NONE', #284, #29 ) ;
#345 = CARTESIAN_POINT ( 'NONE',  ( 0.000000000000000000, 0.000000000000000000, 50.00000000000000000 ) ) ;
#346 = CARTESIAN_POINT ( 'NONE',  ( 7.500000000000000000, 9.184850993605147944E-16, 0.000000000000000000 ) ) ;
#347 = PRODUCT_DEFINITION_CONTEXT ( 'detailed design', #259, 'design' ) ;
#348 = CIRCLE ( 'NONE', #329, 9.500000000000000000 ) ;
#349 = CARTESIAN_POINT ( 'NONE',  ( 10.49999999999999822, 1.285879139104720633E-15, 49.00000000000000000 ) ) ;
#350 = DIRECTION ( 'NONE',  ( 0.000000000000000000, 0.000000000000000000, 1.000000000000000000 ) ) ;
#351 = ORIENTED_EDGE ( 'NONE', *, *, #174, .T. ) ;
#352 = DIRECTION ( 'NONE',  ( 1.000000000000000000, 0.000000000000000000, 0.000000000000000000 ) ) ;
#353 = ORIENTED_EDGE ( 'NONE', *, *, #84, .T. ) ;
#354 = CIRCLE ( 'NONE', #109, 9.500000000000000000 ) ;
#355 = VERTEX_POINT ( 'NONE', #321 ) ;
#356 = PLANE ( 'NONE',  #138 ) ;
#357 = VERTEX_POINT ( 'NONE', #89 ) ;
#358 = MANIFOLD_SOLID_BREP ( 'Enlèv. mat.-Extru.2', #240 ) ;
#359 = DIRECTION ( 'NONE',  ( -0.000000000000000000, -0.000000000000000000, -1.000000000000000000 ) ) ;
#360 = EDGE_CURVE ( 'NONE', #33, #337, #224, .T. ) ;
#361 = DIRECTION ( 'NONE',  ( 1.000000000000000000, 0.000000000000000000, 0.000000000000000000 ) ) ;
#362 = DIRECTION ( 'NONE',  ( 0.000000000000000000, 0.000000000000000000, 1.000000000000000000 ) ) ;
#363 =( GEOMETRIC_REPRESENTATION_CONTEXT ( 3 ) GLOBAL_UNCERTAINTY_ASSIGNED_CONTEXT ( ( #43 ) ) GLOBAL_UNIT_ASSIGNED_CONTEXT ( ( #117, #216, #195 ) ) REPRESENTATION_CONTEXT ( 'NONE', 'WORKASPACE' ) );
#364 = APPLICATION_PROTOCOL_DEFINITION ( 'draft international standard', 'automotive_design', 1998, #259 ) ;
#365 = ORIENTED_EDGE ( 'NONE', *, *, #26, .F. ) ;
#366 = DIRECTION ( 'NONE',  ( -1.000000000000000000, 0.000000000000000000, -0.000000000000000000 ) ) ;
#367 = CARTESIAN_POINT ( 'NONE',  ( -10.49999999999999822, 0.000000000000000000, 50.00000000000000000 ) ) ;
#368 = CIRCLE ( 'NONE', #341, 10.49999999999999822 ) ;
#369 = PRESENTATION_LAYER_ASSIGNMENT (  '', '', ( #316 ) ) ;
#370 = CYLINDRICAL_SURFACE ( 'NONE', #160, 10.49999999999999822 ) ;
#371 = DIRECTION ( 'NONE',  ( -1.000000000000000000, 0.000000000000000000, 0.000000000000000000 ) ) ;
#372 = EDGE_CURVE ( 'NONE', #306, #357, #81, .T. ) ;
#373 = CARTESIAN_POINT ( 'NONE',  ( 0.000000000000000000, 0.000000000000000000, 1.000000000000000000 ) ) ;
#374 = AXIS2_PLACEMENT_3D ( 'NONE', #307, #22, #366 ) ;
ENDSEC;
END-ISO-10303-21;
