ISO-10303-21;
HEADER;
FILE_DESCRIPTION (( 'STEP AP214' ),
    '1' );
FILE_NAME ('P22005 patin.STEP',
    '2022-11-14T09:54:46',
    ( '' ),
    ( '' ),
    'SwSTEP 2.0',
    'SolidWorks 2021',
    '' );
FILE_SCHEMA (( 'AUTOMOTIVE_DESIGN' ));
ENDSEC;

DATA;
#1 = EDGE_LOOP ( 'NONE', ( #166, #238, #285, #23 ) ) ;
#2 = DIRECTION ( 'NONE',  ( 0.000000000000000000, 0.000000000000000000, 1.000000000000000000 ) ) ;
#3 = EDGE_CURVE ( 'NONE', #111, #289, #164, .T. ) ;
#4 = ORIENTED_EDGE ( 'NONE', *, *, #11, .T. ) ;
#5 = VECTOR ( 'NONE', #99, 1000.000000000000114 ) ;
#6 = ORIENTED_EDGE ( 'NONE', *, *, #292, .T. ) ;
#7 = ADVANCED_FACE ( 'NONE', ( #151 ), #248, .F. ) ;
#8 = CARTESIAN_POINT ( 'NONE',  ( 0.000000000000000000, 0.000000000000000000, 0.000000000000000000 ) ) ;
#9 = MANIFOLD_SOLID_BREP ( 'Révolution1', #157 ) ;
#10 = DIRECTION ( 'NONE',  ( -0.000000000000000000, 1.000000000000000000, -0.000000000000000000 ) ) ;
#11 = EDGE_CURVE ( 'NONE', #112, #241, #25, .T. ) ;
#12 = CARTESIAN_POINT ( 'NONE',  ( 0.000000000000000000, 0.000000000000000000, 0.000000000000000000 ) ) ;
#13 = CARTESIAN_POINT ( 'NONE',  ( 1.224646799147353256E-15, 6.174136627174186209, -10.00000000000000000 ) ) ;
#14 = CIRCLE ( 'NONE', #307, 3.360000000000000764 ) ;
#15 = DIRECTION ( 'NONE',  ( -0.000000000000000000, 1.000000000000000000, -0.000000000000000000 ) ) ;
#16 = DIRECTION ( 'NONE',  ( 0.000000000000000000, 0.000000000000000000, 1.000000000000000000 ) ) ;
#17 = CARTESIAN_POINT ( 'NONE',  ( 1.600000000000000977, 0.000000000000000000, 0.000000000000000000 ) ) ;
#18 = VECTOR ( 'NONE', #152, 1000.000000000000000 ) ;
#19 = DIRECTION ( 'NONE',  ( 0.000000000000000000, 0.7071067811865460184, 0.7071067811865490160 ) ) ;
#20 = SURFACE_SIDE_STYLE ('',( #251 ) ) ;
#21 = CARTESIAN_POINT ( 'NONE',  ( 0.000000000000000000, 6.174136627174186209, 0.000000000000000000 ) ) ;
#22 = EDGE_LOOP ( 'NONE', ( #71, #189 ) ) ;
#23 = ORIENTED_EDGE ( 'NONE', *, *, #104, .F. ) ;
#24 = PRODUCT_DEFINITION_CONTEXT ( 'detailed design', #180, 'design' ) ;
#25 = CIRCLE ( 'NONE', #237, 8.800000000000000711 ) ;
#26 = MECHANICAL_DESIGN_GEOMETRIC_PRESENTATION_REPRESENTATION (  '', ( #95 ), #281 ) ;
#27 = VERTEX_POINT ( 'NONE', #195 ) ;
#28 = EDGE_LOOP ( 'NONE', ( #214, #264 ) ) ;
#29 = AXIS2_PLACEMENT_3D ( 'NONE', #148, #301, #246 ) ;
#30 = CARTESIAN_POINT ( 'NONE',  ( 1.224646799147353256E-15, 0.000000000000000000, -10.00000000000000000 ) ) ;
#31 = CARTESIAN_POINT ( 'NONE',  ( 1.077689183249670803E-15, -2.000000000000000000, -8.800000000000000711 ) ) ;
#32 = DIRECTION ( 'NONE',  ( -0.000000000000000000, 1.000000000000000000, -0.000000000000000000 ) ) ;
#33 = CARTESIAN_POINT ( 'NONE',  ( 0.000000000000000000, -0.2399999999999954392, 0.000000000000000000 ) ) ;
#34 = SHAPE_DEFINITION_REPRESENTATION ( #282, #130 ) ;
#35 = CARTESIAN_POINT ( 'NONE',  ( 0.000000000000000000, -2.000000000000000000, -3.360000000000000764 ) ) ;
#36 = PRODUCT_DEFINITION ( 'UNKNOWN', '', #138, #24 ) ;
#37 = CARTESIAN_POINT ( 'NONE',  ( 0.000000000000000000, -2.000000000000000000, 0.000000000000000000 ) ) ;
#38 = LINE ( 'NONE', #162, #39 ) ;
#39 = VECTOR ( 'NONE', #183, 999.9999999999998863 ) ;
#40 = DIRECTION ( 'NONE',  ( 0.000000000000000000, 0.000000000000000000, 1.000000000000000000 ) ) ;
#41 =( GEOMETRIC_REPRESENTATION_CONTEXT ( 3 ) GLOBAL_UNCERTAINTY_ASSIGNED_CONTEXT ( ( #294 ) ) GLOBAL_UNIT_ASSIGNED_CONTEXT ( ( #225, #198, #102 ) ) REPRESENTATION_CONTEXT ( 'NONE', 'WORKASPACE' ) );
#42 = CARTESIAN_POINT ( 'NONE',  ( 1.959434878635766709E-16, 6.174136627174186209, -1.600000000000001199 ) ) ;
#43 = VERTEX_POINT ( 'NONE', #35 ) ;
#44 = ORIENTED_EDGE ( 'NONE', *, *, #298, .F. ) ;
#45 = ORIENTED_EDGE ( 'NONE', *, *, #3, .F. ) ;
#46 = ORIENTED_EDGE ( 'NONE', *, *, #113, .T. ) ;
#47 = VERTEX_POINT ( 'NONE', #76 ) ;
#48 = DIRECTION ( 'NONE',  ( -0.000000000000000000, 1.000000000000000000, -0.000000000000000000 ) ) ;
#49 = EDGE_CURVE ( 'NONE', #289, #67, #147, .T. ) ;
#50 = SURFACE_SIDE_STYLE ('',( #295 ) ) ;
#51 = FACE_OUTER_BOUND ( 'NONE', #1, .T. ) ;
#52 = DIRECTION ( 'NONE',  ( 0.000000000000000000, 0.000000000000000000, 1.000000000000000000 ) ) ;
#53 = EDGE_CURVE ( 'NONE', #96, #93, #271, .T. ) ;
#54 = FILL_AREA_STYLE ('',( #221 ) ) ;
#55 = AXIS2_PLACEMENT_3D ( 'NONE', #279, #158, #16 ) ;
#56 = PRODUCT ( 'P22005 patin', 'P22005 patin', '', ( #78 ) ) ;
#57 = DIRECTION ( 'NONE',  ( 0.000000000000000000, 0.000000000000000000, -1.000000000000000000 ) ) ;
#58 = SURFACE_STYLE_USAGE ( .BOTH. , #20 ) ;
#59 = CYLINDRICAL_SURFACE ( 'NONE', #117, 10.00000000000000000 ) ;
#60 = ADVANCED_FACE ( 'NONE', ( #51 ), #304, .T. ) ;
#61 = DIRECTION ( 'NONE',  ( -0.000000000000000000, 1.000000000000000000, -0.000000000000000000 ) ) ;
#62 =( NAMED_UNIT ( * ) SI_UNIT ( $, .STERADIAN. ) SOLID_ANGLE_UNIT ( ) );
#63 = DIRECTION ( 'NONE',  ( 0.000000000000000000, 0.000000000000000000, 1.000000000000000000 ) ) ;
#64 = LINE ( 'NONE', #42, #18 ) ;
#65 = AXIS2_PLACEMENT_3D ( 'NONE', #208, #79, #178 ) ;
#66 = EDGE_LOOP ( 'NONE', ( #115, #265, #236, #239 ) ) ;
#67 = VERTEX_POINT ( 'NONE', #30 ) ;
#68 = ORIENTED_EDGE ( 'NONE', *, *, #298, .T. ) ;
#69 = DIRECTION ( 'NONE',  ( 0.000000000000000000, 0.000000000000000000, 1.000000000000000000 ) ) ;
#70 = CIRCLE ( 'NONE', #280, 10.00000000000000000 ) ;
#71 = ORIENTED_EDGE ( 'NONE', *, *, #113, .F. ) ;
#72 = ORIENTED_EDGE ( 'NONE', *, *, #312, .T. ) ;
#73 = CARTESIAN_POINT ( 'NONE',  ( 1.151167991198511931E-15, -2.000000000000000000, -8.800000000000000711 ) ) ;
#74 = CARTESIAN_POINT ( 'NONE',  ( 0.000000000000000000, 6.174136627174186209, 0.000000000000000000 ) ) ;
#75 = LINE ( 'NONE', #173, #181 ) ;
#76 = CARTESIAN_POINT ( 'NONE',  ( 4.114813245135108019E-16, -2.000000000000000000, 3.360000000000000764 ) ) ;
#77 = DIRECTION ( 'NONE',  ( -0.000000000000000000, 1.000000000000000000, -0.000000000000000000 ) ) ;
#78 = PRODUCT_CONTEXT ( 'NONE', #233, 'mechanical' ) ;
#79 = DIRECTION ( 'NONE',  ( -0.000000000000000000, 1.000000000000000000, 0.000000000000000000 ) ) ;
#80 = PRESENTATION_STYLE_ASSIGNMENT (( #58 ) ) ;
#81 = CYLINDRICAL_SURFACE ( 'NONE', #55, 10.00000000000000000 ) ;
#82 = DIRECTION ( 'NONE',  ( -0.000000000000000000, 1.000000000000000000, -0.000000000000000000 ) ) ;
#83 = AXIS2_PLACEMENT_3D ( 'NONE', #101, #48, #201 ) ;
#84 = DIRECTION ( 'NONE',  ( 0.000000000000000000, 0.000000000000000000, 1.000000000000000000 ) ) ;
#85 = DIRECTION ( 'NONE',  ( 0.000000000000000000, 0.000000000000000000, 1.000000000000000000 ) ) ;
#86 = EDGE_CURVE ( 'NONE', #67, #213, #296, .T. ) ;
#87 = CARTESIAN_POINT ( 'NONE',  ( 0.000000000000000000, 6.174136627174186209, 1.600000000000001199 ) ) ;
#88 = EDGE_CURVE ( 'NONE', #96, #47, #75, .T. ) ;
#89 = ORIENTED_EDGE ( 'NONE', *, *, #235, .F. ) ;
#90 = ORIENTED_EDGE ( 'NONE', *, *, #250, .T. ) ;
#91 = ORIENTED_EDGE ( 'NONE', *, *, #53, .F. ) ;
#92 = CARTESIAN_POINT ( 'NONE',  ( 0.000000000000000000, 6.174136627174186209, 10.00000000000000000 ) ) ;
#93 = VERTEX_POINT ( 'NONE', #172 ) ;
#94 = VECTOR ( 'NONE', #284, 1000.000000000000000 ) ;
#95 = STYLED_ITEM ( 'NONE', ( #80 ), #130 ) ;
#96 = VERTEX_POINT ( 'NONE', #273 ) ;
#97 = FACE_OUTER_BOUND ( 'NONE', #234, .T. ) ;
#98 = DIRECTION ( 'NONE',  ( -0.000000000000000000, 1.000000000000000000, -0.000000000000000000 ) ) ;
#99 = DIRECTION ( 'NONE',  ( 8.659560562354952580E-17, 0.7071067811865460184, -0.7071067811865490160 ) ) ;
#100 = CARTESIAN_POINT ( 'NONE',  ( 0.000000000000000000, -2.000000000000000000, 0.000000000000000000 ) ) ;
#101 = CARTESIAN_POINT ( 'NONE',  ( 0.000000000000000000, -0.8000000000000055955, 0.000000000000000000 ) ) ;
#102 =( NAMED_UNIT ( * ) SI_UNIT ( $, .STERADIAN. ) SOLID_ANGLE_UNIT ( ) );
#103 = FACE_OUTER_BOUND ( 'NONE', #190, .T. ) ;
#104 = EDGE_CURVE ( 'NONE', #289, #111, #212, .T. ) ;
#105 = DIRECTION ( 'NONE',  ( 0.000000000000000000, 0.000000000000000000, 1.000000000000000000 ) ) ;
#106 = CARTESIAN_POINT ( 'NONE',  ( 0.000000000000000000, -2.000000000000000000, 0.000000000000000000 ) ) ;
#107 =( NAMED_UNIT ( * ) SI_UNIT ( $, .STERADIAN. ) SOLID_ANGLE_UNIT ( ) );
#108 = FACE_OUTER_BOUND ( 'NONE', #314, .T. ) ;
#109 = CYLINDRICAL_SURFACE ( 'NONE', #150, 1.600000000000001199 ) ;
#110 = CARTESIAN_POINT ( 'NONE',  ( 0.000000000000000000, 0.000000000000000000, 10.00000000000000000 ) ) ;
#111 = VERTEX_POINT ( 'NONE', #274 ) ;
#112 = VERTEX_POINT ( 'NONE', #122 ) ;
#113 = EDGE_CURVE ( 'NONE', #27, #170, #191, .T. ) ;
#114 = EDGE_LOOP ( 'NONE', ( #193, #136, #134, #169 ) ) ;
#115 = ORIENTED_EDGE ( 'NONE', *, *, #88, .F. ) ;
#116 = ORIENTED_EDGE ( 'NONE', *, *, #269, .T. ) ;
#117 = AXIS2_PLACEMENT_3D ( 'NONE', #21, #61, #105 ) ;
#118 = DIRECTION ( 'NONE',  ( 0.000000000000000000, 0.000000000000000000, 1.000000000000000000 ) ) ;
#119 = ORIENTED_EDGE ( 'NONE', *, *, #235, .T. ) ;
#120 = CARTESIAN_POINT ( 'NONE',  ( 0.000000000000000000, -0.2399999999999954392, 0.000000000000000000 ) ) ;
#121 = AXIS2_PLACEMENT_3D ( 'NONE', #37, #15, #84 ) ;
#122 = CARTESIAN_POINT ( 'NONE',  ( 0.000000000000000000, -2.000000000000000000, 8.800000000000000711 ) ) ;
#123 = FACE_OUTER_BOUND ( 'NONE', #142, .T. ) ;
#124 =( NAMED_UNIT ( * ) PLANE_ANGLE_UNIT ( ) SI_UNIT ( $, .RADIAN. ) );
#125 = FACE_OUTER_BOUND ( 'NONE', #114, .T. ) ;
#126 = VECTOR ( 'NONE', #245, 1000.000000000000000 ) ;
#127 = CONICAL_SURFACE ( 'NONE', #121, 8.800000000000000711, 0.7853981633974504994 ) ;
#128 = ADVANCED_FACE ( 'NONE', ( #174, #275 ), #132, .F. ) ;
#129 =( LENGTH_UNIT ( ) NAMED_UNIT ( * ) SI_UNIT ( .MILLI., .METRE. ) );
#130 = ADVANCED_BREP_SHAPE_REPRESENTATION ( 'P22005 patin', ( #9, #160 ), #272 ) ;
#131 = CARTESIAN_POINT ( 'NONE',  ( 0.000000000000000000, -0.2399999999999954392, 0.000000000000000000 ) ) ;
#132 = PLANE ( 'NONE',  #217 ) ;
#133 = VECTOR ( 'NONE', #19, 1000.000000000000114 ) ;
#134 = ORIENTED_EDGE ( 'NONE', *, *, #253, .T. ) ;
#135 = ORIENTED_EDGE ( 'NONE', *, *, #88, .T. ) ;
#136 = ORIENTED_EDGE ( 'NONE', *, *, #104, .T. ) ;
#137 = AXIS2_PLACEMENT_3D ( 'NONE', #100, #242, #196 ) ;
#138 = PRODUCT_DEFINITION_FORMATION_WITH_SPECIFIED_SOURCE ( 'ANY', '', #56, .NOT_KNOWN. ) ;
#139 = EDGE_LOOP ( 'NONE', ( #119, #90 ) ) ;
#140 = UNCERTAINTY_MEASURE_WITH_UNIT (LENGTH_MEASURE( 1.000000000000000082E-05 ), #156, 'distance_accuracy_value', 'NONE');
#141 = ADVANCED_FACE ( 'NONE', ( #103, #153 ), #278, .F. ) ;
#142 = EDGE_LOOP ( 'NONE', ( #4, #290, #45, #311 ) ) ;
#143 = PRODUCT_RELATED_PRODUCT_CATEGORY ( 'part', '', ( #56 ) ) ;
#144 = ORIENTED_EDGE ( 'NONE', *, *, #253, .F. ) ;
#145 = PRESENTATION_LAYER_ASSIGNMENT (  '', '', ( #276 ) ) ;
#146 = CONICAL_SURFACE ( 'NONE', #232, 1.600000000000001199, 0.7853981633974468357 ) ;
#147 = LINE ( 'NONE', #13, #126 ) ;
#148 = CARTESIAN_POINT ( 'NONE',  ( 0.000000000000000000, -0.8000000000000055955, 0.000000000000000000 ) ) ;
#149 = DIRECTION ( 'NONE',  ( 0.000000000000000000, 0.000000000000000000, 1.000000000000000000 ) ) ;
#150 = AXIS2_PLACEMENT_3D ( 'NONE', #163, #266, #194 ) ;
#151 = FACE_OUTER_BOUND ( 'NONE', #168, .T. ) ;
#152 = DIRECTION ( 'NONE',  ( -0.000000000000000000, 1.000000000000000000, -0.000000000000000000 ) ) ;
#153 = FACE_BOUND ( 'NONE', #139, .T. ) ;
#154 = FILL_AREA_STYLE ('',( #204 ) ) ;
#155 = CARTESIAN_POINT ( 'NONE',  ( 1.959434878635766463E-16, 0.000000000000000000, -1.600000000000000977 ) ) ;
#156 =( LENGTH_UNIT ( ) NAMED_UNIT ( * ) SI_UNIT ( .MILLI., .METRE. ) );
#157 = CLOSED_SHELL ( 'NONE', ( #306, #309, #165, #7, #247, #128, #223, #60, #141, #219 ) ) ;
#158 = DIRECTION ( 'NONE',  ( -0.000000000000000000, 1.000000000000000000, -0.000000000000000000 ) ) ;
#159 = PRESENTATION_LAYER_ASSIGNMENT (  '', '', ( #95 ) ) ;
#160 = AXIS2_PLACEMENT_3D ( 'NONE', #161, #256, #308 ) ;
#161 = CARTESIAN_POINT ( 'NONE',  ( 0.000000000000000000, 0.000000000000000000, 0.000000000000000000 ) ) ;
#162 = CARTESIAN_POINT ( 'NONE',  ( 0.000000000000000000, -0.2399999999999954392, -1.600000000000001199 ) ) ;
#163 = CARTESIAN_POINT ( 'NONE',  ( 0.000000000000000000, 6.174136627174186209, 0.000000000000000000 ) ) ;
#164 = CIRCLE ( 'NONE', #83, 10.00000000000000000 ) ;
#165 = ADVANCED_FACE ( 'NONE', ( #108 ), #59, .T. ) ;
#166 = ORIENTED_EDGE ( 'NONE', *, *, #267, .F. ) ;
#167 = ORIENTED_EDGE ( 'NONE', *, *, #292, .F. ) ;
#168 = EDGE_LOOP ( 'NONE', ( #211, #68, #72, #167 ) ) ;
#169 = ORIENTED_EDGE ( 'NONE', *, *, #86, .F. ) ;
#170 = VERTEX_POINT ( 'NONE', #155 ) ;
#171 = AXIS2_PLACEMENT_3D ( 'NONE', #33, #32, #268 ) ;
#172 = CARTESIAN_POINT ( 'NONE',  ( 1.959434878635766709E-16, -0.2399999999999954392, -1.600000000000001199 ) ) ;
#173 = CARTESIAN_POINT ( 'NONE',  ( 1.959434878635766709E-16, -0.2399999999999954392, 1.600000000000001199 ) ) ;
#174 = FACE_BOUND ( 'NONE', #22, .T. ) ;
#175 = COLOUR_RGB ( '',1.000000000000000000, 1.000000000000000000, 1.000000000000000000 ) ;
#176 = DIRECTION ( 'NONE',  ( 0.000000000000000000, -1.000000000000000000, 0.000000000000000000 ) ) ;
#177 = APPLICATION_PROTOCOL_DEFINITION ( 'draft international standard', 'automotive_design', 1998, #180 ) ;
#178 = DIRECTION ( 'NONE',  ( 0.000000000000000000, 0.000000000000000000, 1.000000000000000000 ) ) ;
#179 = DIRECTION ( 'NONE',  ( -0.000000000000000000, 1.000000000000000000, -0.000000000000000000 ) ) ;
#180 = APPLICATION_CONTEXT ( 'automotive_design' ) ;
#181 = VECTOR ( 'NONE', #224, 999.9999999999998863 ) ;
#182 = DIRECTION ( 'NONE',  ( 0.000000000000000000, 0.000000000000000000, 1.000000000000000000 ) ) ;
#183 = DIRECTION ( 'NONE',  ( 0.000000000000000000, -0.7071067811865486830, -0.7071067811865464625 ) ) ;
#184 = DIRECTION ( 'NONE',  ( -0.000000000000000000, 1.000000000000000000, -0.000000000000000000 ) ) ;
#185 = AXIS2_PLACEMENT_3D ( 'NONE', #131, #230, #69 ) ;
#186 = ORIENTED_EDGE ( 'NONE', *, *, #3, .T. ) ;
#187 = ORIENTED_EDGE ( 'NONE', *, *, #200, .F. ) ;
#188 = EDGE_CURVE ( 'NONE', #241, #112, #207, .T. ) ;
#189 = ORIENTED_EDGE ( 'NONE', *, *, #312, .F. ) ;
#190 = EDGE_LOOP ( 'NONE', ( #215, #262 ) ) ;
#191 = CIRCLE ( 'NONE', #197, 1.600000000000000977 ) ;
#192 = DIRECTION ( 'NONE',  ( -0.000000000000000000, 1.000000000000000000, -0.000000000000000000 ) ) ;
#193 = ORIENTED_EDGE ( 'NONE', *, *, #49, .F. ) ;
#194 = DIRECTION ( 'NONE',  ( 0.000000000000000000, 0.000000000000000000, 1.000000000000000000 ) ) ;
#195 = CARTESIAN_POINT ( 'NONE',  ( 0.000000000000000000, 0.000000000000000000, 1.600000000000000977 ) ) ;
#196 = DIRECTION ( 'NONE',  ( 0.000000000000000000, 0.000000000000000000, 1.000000000000000000 ) ) ;
#197 = AXIS2_PLACEMENT_3D ( 'NONE', #12, #77, #199 ) ;
#198 =( NAMED_UNIT ( * ) PLANE_ANGLE_UNIT ( ) SI_UNIT ( $, .RADIAN. ) );
#199 = DIRECTION ( 'NONE',  ( 0.000000000000000000, 0.000000000000000000, 1.000000000000000000 ) ) ;
#200 = EDGE_CURVE ( 'NONE', #93, #43, #38, .T. ) ;
#201 = DIRECTION ( 'NONE',  ( 0.000000000000000000, 0.000000000000000000, 1.000000000000000000 ) ) ;
#202 = FACE_OUTER_BOUND ( 'NONE', #286, .T. ) ;
#203 = CONICAL_SURFACE ( 'NONE', #243, 1.600000000000001199, 0.7853981633974468357 ) ;
#204 = FILL_AREA_STYLE_COLOUR ( '', #288 ) ;
#205 = CARTESIAN_POINT ( 'NONE',  ( 0.000000000000000000, -0.2399999999999954392, 0.000000000000000000 ) ) ;
#206 =( NAMED_UNIT ( * ) PLANE_ANGLE_UNIT ( ) SI_UNIT ( $, .RADIAN. ) );
#207 = CIRCLE ( 'NONE', #222, 8.800000000000000711 ) ;
#208 = CARTESIAN_POINT ( 'NONE',  ( 8.800000000000000711, -2.000000000000000000, 0.000000000000000000 ) ) ;
#209 = CARTESIAN_POINT ( 'NONE',  ( 1.224646799147353256E-15, -0.8000000000000055955, -10.00000000000000000 ) ) ;
#210 = EDGE_CURVE ( 'NONE', #213, #67, #70, .T. ) ;
#211 = ORIENTED_EDGE ( 'NONE', *, *, #269, .F. ) ;
#212 = CIRCLE ( 'NONE', #29, 10.00000000000000000 ) ;
#213 = VERTEX_POINT ( 'NONE', #110 ) ;
#214 = ORIENTED_EDGE ( 'NONE', *, *, #210, .T. ) ;
#215 = ORIENTED_EDGE ( 'NONE', *, *, #11, .F. ) ;
#216 = ORIENTED_EDGE ( 'NONE', *, *, #49, .T. ) ;
#217 = AXIS2_PLACEMENT_3D ( 'NONE', #17, #176, #226 ) ;
#218 = PRESENTATION_STYLE_ASSIGNMENT (( #302 ) ) ;
#219 = ADVANCED_FACE ( 'NONE', ( #228 ), #203, .F. ) ;
#220 = CARTESIAN_POINT ( 'NONE',  ( 0.000000000000000000, -2.000000000000000000, 8.800000000000000711 ) ) ;
#221 = FILL_AREA_STYLE_COLOUR ( '', #175 ) ;
#222 = AXIS2_PLACEMENT_3D ( 'NONE', #252, #283, #85 ) ;
#223 = ADVANCED_FACE ( 'NONE', ( #125 ), #81, .T. ) ;
#224 = DIRECTION ( 'NONE',  ( 8.659560562354921765E-17, -0.7071067811865486830, 0.7071067811865464625 ) ) ;
#225 =( LENGTH_UNIT ( ) NAMED_UNIT ( * ) SI_UNIT ( .MILLI., .METRE. ) );
#226 = DIRECTION ( 'NONE',  ( 0.000000000000000000, -0.000000000000000000, -1.000000000000000000 ) ) ;
#227 = MECHANICAL_DESIGN_GEOMETRIC_PRESENTATION_REPRESENTATION (  '', ( #276 ), #41 ) ;
#228 = FACE_OUTER_BOUND ( 'NONE', #66, .T. ) ;
#229 = UNCERTAINTY_MEASURE_WITH_UNIT (LENGTH_MEASURE( 1.000000000000000082E-05 ), #129, 'distance_accuracy_value', 'NONE');
#230 = DIRECTION ( 'NONE',  ( -0.000000000000000000, 1.000000000000000000, -0.000000000000000000 ) ) ;
#231 = AXIS2_PLACEMENT_3D ( 'NONE', #291, #192, #2 ) ;
#232 = AXIS2_PLACEMENT_3D ( 'NONE', #120, #300, #303 ) ;
#233 = APPLICATION_CONTEXT ( 'automotive_design' ) ;
#234 = EDGE_LOOP ( 'NONE', ( #44, #91, #6, #46 ) ) ;
#235 = EDGE_CURVE ( 'NONE', #43, #47, #14, .T. ) ;
#236 = ORIENTED_EDGE ( 'NONE', *, *, #200, .T. ) ;
#237 = AXIS2_PLACEMENT_3D ( 'NONE', #293, #299, #149 ) ;
#238 = ORIENTED_EDGE ( 'NONE', *, *, #188, .T. ) ;
#239 = ORIENTED_EDGE ( 'NONE', *, *, #250, .F. ) ;
#240 = LINE ( 'NONE', #220, #133 ) ;
#241 = VERTEX_POINT ( 'NONE', #73 ) ;
#242 = DIRECTION ( 'NONE',  ( -0.000000000000000000, 1.000000000000000000, -0.000000000000000000 ) ) ;
#243 = AXIS2_PLACEMENT_3D ( 'NONE', #205, #277, #57 ) ;
#244 = LINE ( 'NONE', #31, #5 ) ;
#245 = DIRECTION ( 'NONE',  ( -0.000000000000000000, 1.000000000000000000, -0.000000000000000000 ) ) ;
#246 = DIRECTION ( 'NONE',  ( 0.000000000000000000, 0.000000000000000000, 1.000000000000000000 ) ) ;
#247 = ADVANCED_FACE ( 'NONE', ( #97 ), #109, .F. ) ;
#248 = CYLINDRICAL_SURFACE ( 'NONE', #254, 1.600000000000001199 ) ;
#249 = AXIS2_PLACEMENT_3D ( 'NONE', #8, #98, #118 ) ;
#250 = EDGE_CURVE ( 'NONE', #47, #43, #287, .T. ) ;
#251 = SURFACE_STYLE_FILL_AREA ( #154 ) ;
#252 = CARTESIAN_POINT ( 'NONE',  ( 0.000000000000000000, -2.000000000000000000, 0.000000000000000000 ) ) ;
#253 = EDGE_CURVE ( 'NONE', #111, #213, #260, .T. ) ;
#254 = AXIS2_PLACEMENT_3D ( 'NONE', #74, #10, #52 ) ;
#255 = AXIS2_PLACEMENT_3D ( 'NONE', #258, #310, #40 ) ;
#256 = DIRECTION ( 'NONE',  ( 0.000000000000000000, 0.000000000000000000, 1.000000000000000000 ) ) ;
#257 = CARTESIAN_POINT ( 'NONE',  ( 0.000000000000000000, 0.000000000000000000, 0.000000000000000000 ) ) ;
#258 = CARTESIAN_POINT ( 'NONE',  ( 0.000000000000000000, 0.000000000000000000, 0.000000000000000000 ) ) ;
#259 = EDGE_CURVE ( 'NONE', #112, #111, #240, .T. ) ;
#260 = LINE ( 'NONE', #92, #94 ) ;
#261 = CIRCLE ( 'NONE', #185, 1.600000000000001199 ) ;
#262 = ORIENTED_EDGE ( 'NONE', *, *, #188, .F. ) ;
#263 = ORIENTED_EDGE ( 'NONE', *, *, #210, .F. ) ;
#264 = ORIENTED_EDGE ( 'NONE', *, *, #86, .T. ) ;
#265 = ORIENTED_EDGE ( 'NONE', *, *, #53, .T. ) ;
#266 = DIRECTION ( 'NONE',  ( -0.000000000000000000, 1.000000000000000000, -0.000000000000000000 ) ) ;
#267 = EDGE_CURVE ( 'NONE', #241, #289, #244, .T. ) ;
#268 = DIRECTION ( 'NONE',  ( 0.000000000000000000, 0.000000000000000000, 1.000000000000000000 ) ) ;
#269 = EDGE_CURVE ( 'NONE', #93, #96, #261, .T. ) ;
#270 = LINE ( 'NONE', #87, #297 ) ;
#271 = CIRCLE ( 'NONE', #171, 1.600000000000001199 ) ;
#272 =( GEOMETRIC_REPRESENTATION_CONTEXT ( 3 ) GLOBAL_UNCERTAINTY_ASSIGNED_CONTEXT ( ( #140 ) ) GLOBAL_UNIT_ASSIGNED_CONTEXT ( ( #156, #124, #62 ) ) REPRESENTATION_CONTEXT ( 'NONE', 'WORKASPACE' ) );
#273 = CARTESIAN_POINT ( 'NONE',  ( 0.000000000000000000, -0.2399999999999954392, 1.600000000000001199 ) ) ;
#274 = CARTESIAN_POINT ( 'NONE',  ( 0.000000000000000000, -0.8000000000000055955, 10.00000000000000000 ) ) ;
#275 = FACE_OUTER_BOUND ( 'NONE', #28, .T. ) ;
#276 = STYLED_ITEM ( 'NONE', ( #218 ), #9 ) ;
#277 = DIRECTION ( 'NONE',  ( 0.000000000000000000, -1.000000000000000000, 0.000000000000000000 ) ) ;
#278 = PLANE ( 'NONE',  #65 ) ;
#279 = CARTESIAN_POINT ( 'NONE',  ( 0.000000000000000000, 6.174136627174186209, 0.000000000000000000 ) ) ;
#280 = AXIS2_PLACEMENT_3D ( 'NONE', #257, #179, #63 ) ;
#281 =( GEOMETRIC_REPRESENTATION_CONTEXT ( 3 ) GLOBAL_UNCERTAINTY_ASSIGNED_CONTEXT ( ( #229 ) ) GLOBAL_UNIT_ASSIGNED_CONTEXT ( ( #129, #206, #107 ) ) REPRESENTATION_CONTEXT ( 'NONE', 'WORKASPACE' ) );
#282 = PRODUCT_DEFINITION_SHAPE ( 'NONE', 'NONE',  #36 ) ;
#283 = DIRECTION ( 'NONE',  ( -0.000000000000000000, 1.000000000000000000, -0.000000000000000000 ) ) ;
#284 = DIRECTION ( 'NONE',  ( -0.000000000000000000, 1.000000000000000000, -0.000000000000000000 ) ) ;
#285 = ORIENTED_EDGE ( 'NONE', *, *, #259, .T. ) ;
#286 = EDGE_LOOP ( 'NONE', ( #116, #135, #89, #187 ) ) ;
#287 = CIRCLE ( 'NONE', #231, 3.360000000000000764 ) ;
#288 = COLOUR_RGB ( '',1.000000000000000000, 1.000000000000000000, 1.000000000000000000 ) ;
#289 = VERTEX_POINT ( 'NONE', #209 ) ;
#290 = ORIENTED_EDGE ( 'NONE', *, *, #267, .T. ) ;
#291 = CARTESIAN_POINT ( 'NONE',  ( 0.000000000000000000, -2.000000000000000000, 0.000000000000000000 ) ) ;
#292 = EDGE_CURVE ( 'NONE', #96, #27, #270, .T. ) ;
#293 = CARTESIAN_POINT ( 'NONE',  ( 0.000000000000000000, -2.000000000000000000, 0.000000000000000000 ) ) ;
#294 = UNCERTAINTY_MEASURE_WITH_UNIT (LENGTH_MEASURE( 1.000000000000000082E-05 ), #225, 'distance_accuracy_value', 'NONE');
#295 = SURFACE_STYLE_FILL_AREA ( #54 ) ;
#296 = CIRCLE ( 'NONE', #249, 10.00000000000000000 ) ;
#297 = VECTOR ( 'NONE', #184, 1000.000000000000000 ) ;
#298 = EDGE_CURVE ( 'NONE', #93, #170, #64, .T. ) ;
#299 = DIRECTION ( 'NONE',  ( -0.000000000000000000, 1.000000000000000000, -0.000000000000000000 ) ) ;
#300 = DIRECTION ( 'NONE',  ( 0.000000000000000000, -1.000000000000000000, 0.000000000000000000 ) ) ;
#301 = DIRECTION ( 'NONE',  ( -0.000000000000000000, 1.000000000000000000, -0.000000000000000000 ) ) ;
#302 = SURFACE_STYLE_USAGE ( .BOTH. , #50 ) ;
#303 = DIRECTION ( 'NONE',  ( 0.000000000000000000, 0.000000000000000000, -1.000000000000000000 ) ) ;
#304 = CONICAL_SURFACE ( 'NONE', #137, 8.800000000000000711, 0.7853981633974504994 ) ;
#305 = APPLICATION_PROTOCOL_DEFINITION ( 'draft international standard', 'automotive_design', 1998, #233 ) ;
#306 = ADVANCED_FACE ( 'NONE', ( #202 ), #146, .F. ) ;
#307 = AXIS2_PLACEMENT_3D ( 'NONE', #106, #82, #182 ) ;
#308 = DIRECTION ( 'NONE',  ( 1.000000000000000000, 0.000000000000000000, 0.000000000000000000 ) ) ;
#309 = ADVANCED_FACE ( 'NONE', ( #123 ), #127, .T. ) ;
#310 = DIRECTION ( 'NONE',  ( -0.000000000000000000, 1.000000000000000000, -0.000000000000000000 ) ) ;
#311 = ORIENTED_EDGE ( 'NONE', *, *, #259, .F. ) ;
#312 = EDGE_CURVE ( 'NONE', #170, #27, #313, .T. ) ;
#313 = CIRCLE ( 'NONE', #255, 1.600000000000000977 ) ;
#314 = EDGE_LOOP ( 'NONE', ( #186, #216, #263, #144 ) ) ;
ENDSEC;
END-ISO-10303-21;
