ISO-10303-21;
HEADER;
/* Generated by software containing ST-Developer
 * from STEP Tools, Inc. (www.steptools.com) 
 */

FILE_DESCRIPTION(
/* description */ (''),
/* implementation_level */ '2;1');

FILE_NAME(
/* name */ 'axe .step',
/* time_stamp */ '2022-12-26T09:04:29+01:00',
/* author */ (''),
/* organization */ (''),
/* preprocessor_version */ 'ST-DEVELOPER v19.2',
/* originating_system */ 'Autodesk Translation Framework v11.17.0.187',

/* authorisation */ '');

FILE_SCHEMA (('AUTOMOTIVE_DESIGN { 1 0 10303 214 3 1 1 }'));
ENDSEC;

DATA;
#10=MECHANICAL_DESIGN_GEOMETRIC_PRESENTATION_REPRESENTATION('',(#13),#239);
#11=SHAPE_REPRESENTATION_RELATIONSHIP('SRR','None',#246,#12);
#12=ADVANCED_BREP_SHAPE_REPRESENTATION('',(#14),#238);
#13=STYLED_ITEM('',(#255),#14);
#14=MANIFOLD_SOLID_BREP('Corps2',#129);
#15=FACE_BOUND('',#40,.T.);
#16=FACE_BOUND('',#43,.T.);
#17=FACE_BOUND('',#45,.T.);
#18=PLANE('',#154);
#19=PLANE('',#158);
#20=PLANE('',#159);
#21=CYLINDRICAL_SURFACE('',#145,1.666);
#22=CYLINDRICAL_SURFACE('',#149,1.666);
#23=CYLINDRICAL_SURFACE('',#151,3.00000000000001);
#24=CYLINDRICAL_SURFACE('',#155,4.);
#25=FACE_OUTER_BOUND('',#34,.T.);
#26=FACE_OUTER_BOUND('',#35,.T.);
#27=FACE_OUTER_BOUND('',#36,.T.);
#28=FACE_OUTER_BOUND('',#37,.T.);
#29=FACE_OUTER_BOUND('',#38,.T.);
#30=FACE_OUTER_BOUND('',#39,.T.);
#31=FACE_OUTER_BOUND('',#41,.T.);
#32=FACE_OUTER_BOUND('',#42,.T.);
#33=FACE_OUTER_BOUND('',#44,.T.);
#34=EDGE_LOOP('',(#90,#91,#92));
#35=EDGE_LOOP('',(#93,#94,#95,#96));
#36=EDGE_LOOP('',(#97,#98,#99));
#37=EDGE_LOOP('',(#100,#101,#102,#103));
#38=EDGE_LOOP('',(#104,#105,#106,#107));
#39=EDGE_LOOP('',(#108));
#40=EDGE_LOOP('',(#109));
#41=EDGE_LOOP('',(#110,#111,#112,#113));
#42=EDGE_LOOP('',(#114));
#43=EDGE_LOOP('',(#115));
#44=EDGE_LOOP('',(#116));
#45=EDGE_LOOP('',(#117));
#46=LINE('',#207,#52);
#47=LINE('',#211,#53);
#48=LINE('',#216,#54);
#49=LINE('',#220,#55);
#50=LINE('',#225,#56);
#51=LINE('',#232,#57);
#52=VECTOR('',#166,0.75);
#53=VECTOR('',#171,1.5);
#54=VECTOR('',#176,0.75);
#55=VECTOR('',#181,1.5);
#56=VECTOR('',#186,3.00000000000001);
#57=VECTOR('',#195,4.);
#58=CIRCLE('',#144,1.666);
#59=CIRCLE('',#146,1.666);
#60=CIRCLE('',#148,1.666);
#61=CIRCLE('',#150,1.666);
#62=CIRCLE('',#152,3.00000000000001);
#63=CIRCLE('',#153,3.00000000000001);
#64=CIRCLE('',#156,4.);
#65=CIRCLE('',#157,4.);
#66=VERTEX_POINT('',#204);
#67=VERTEX_POINT('',#206);
#68=VERTEX_POINT('',#209);
#69=VERTEX_POINT('',#213);
#70=VERTEX_POINT('',#215);
#71=VERTEX_POINT('',#218);
#72=VERTEX_POINT('',#222);
#73=VERTEX_POINT('',#224);
#74=VERTEX_POINT('',#229);
#75=VERTEX_POINT('',#231);
#76=EDGE_CURVE('',#66,#66,#58,.T.);
#77=EDGE_CURVE('',#66,#67,#46,.T.);
#78=EDGE_CURVE('',#68,#68,#59,.F.);
#79=EDGE_CURVE('',#68,#66,#47,.T.);
#80=EDGE_CURVE('',#69,#69,#60,.T.);
#81=EDGE_CURVE('',#69,#70,#48,.T.);
#82=EDGE_CURVE('',#71,#71,#61,.T.);
#83=EDGE_CURVE('',#71,#69,#49,.T.);
#84=EDGE_CURVE('',#72,#72,#62,.T.);
#85=EDGE_CURVE('',#72,#73,#50,.T.);
#86=EDGE_CURVE('',#73,#73,#63,.T.);
#87=EDGE_CURVE('',#74,#74,#64,.T.);
#88=EDGE_CURVE('',#74,#75,#51,.T.);
#89=EDGE_CURVE('',#75,#75,#65,.T.);
#90=ORIENTED_EDGE('',*,*,#76,.F.);
#91=ORIENTED_EDGE('',*,*,#77,.T.);
#92=ORIENTED_EDGE('',*,*,#77,.F.);
#93=ORIENTED_EDGE('',*,*,#78,.F.);
#94=ORIENTED_EDGE('',*,*,#79,.T.);
#95=ORIENTED_EDGE('',*,*,#76,.T.);
#96=ORIENTED_EDGE('',*,*,#79,.F.);
#97=ORIENTED_EDGE('',*,*,#80,.F.);
#98=ORIENTED_EDGE('',*,*,#81,.T.);
#99=ORIENTED_EDGE('',*,*,#81,.F.);
#100=ORIENTED_EDGE('',*,*,#82,.F.);
#101=ORIENTED_EDGE('',*,*,#83,.T.);
#102=ORIENTED_EDGE('',*,*,#80,.T.);
#103=ORIENTED_EDGE('',*,*,#83,.F.);
#104=ORIENTED_EDGE('',*,*,#84,.F.);
#105=ORIENTED_EDGE('',*,*,#85,.T.);
#106=ORIENTED_EDGE('',*,*,#86,.F.);
#107=ORIENTED_EDGE('',*,*,#85,.F.);
#108=ORIENTED_EDGE('',*,*,#84,.T.);
#109=ORIENTED_EDGE('',*,*,#82,.T.);
#110=ORIENTED_EDGE('',*,*,#87,.F.);
#111=ORIENTED_EDGE('',*,*,#88,.T.);
#112=ORIENTED_EDGE('',*,*,#89,.T.);
#113=ORIENTED_EDGE('',*,*,#88,.F.);
#114=ORIENTED_EDGE('',*,*,#87,.T.);
#115=ORIENTED_EDGE('',*,*,#86,.T.);
#116=ORIENTED_EDGE('',*,*,#89,.F.);
#117=ORIENTED_EDGE('',*,*,#78,.T.);
#118=CONICAL_SURFACE('',#143,0.794033860288771,1.02974425867665);
#119=CONICAL_SURFACE('',#147,0.794033860288771,1.02974425867665);
#120=ADVANCED_FACE('',(#25),#118,.F.);
#121=ADVANCED_FACE('',(#26),#21,.F.);
#122=ADVANCED_FACE('',(#27),#119,.F.);
#123=ADVANCED_FACE('',(#28),#22,.F.);
#124=ADVANCED_FACE('',(#29),#23,.T.);
#125=ADVANCED_FACE('',(#30,#15),#18,.T.);
#126=ADVANCED_FACE('',(#31),#24,.T.);
#127=ADVANCED_FACE('',(#32,#16),#19,.T.);
#128=ADVANCED_FACE('',(#33,#17),#20,.F.);
#129=CLOSED_SHELL('',(#120,#121,#122,#123,#124,#125,#126,#127,#128));
#130=DERIVED_UNIT_ELEMENT(#132,1.);
#131=DERIVED_UNIT_ELEMENT(#241,-3.);
#132=(
MASS_UNIT()
NAMED_UNIT(*)
SI_UNIT(.KILO.,.GRAM.)
);
#133=DERIVED_UNIT((#130,#131));
#134=MEASURE_REPRESENTATION_ITEM('density measure',
POSITIVE_RATIO_MEASURE(7850.),#133);
#135=PROPERTY_DEFINITION_REPRESENTATION(#140,#137);
#136=PROPERTY_DEFINITION_REPRESENTATION(#141,#138);
#137=REPRESENTATION('material name',(#139),#238);
#138=REPRESENTATION('density',(#134),#238);
#139=DESCRIPTIVE_REPRESENTATION_ITEM('Acier','Acier');
#140=PROPERTY_DEFINITION('material property','material name',#248);
#141=PROPERTY_DEFINITION('material property','density of part',#248);
#142=AXIS2_PLACEMENT_3D('placement',#202,#160,#161);
#143=AXIS2_PLACEMENT_3D('',#203,#162,#163);
#144=AXIS2_PLACEMENT_3D('',#205,#164,#165);
#145=AXIS2_PLACEMENT_3D('',#208,#167,#168);
#146=AXIS2_PLACEMENT_3D('',#210,#169,#170);
#147=AXIS2_PLACEMENT_3D('',#212,#172,#173);
#148=AXIS2_PLACEMENT_3D('',#214,#174,#175);
#149=AXIS2_PLACEMENT_3D('',#217,#177,#178);
#150=AXIS2_PLACEMENT_3D('',#219,#179,#180);
#151=AXIS2_PLACEMENT_3D('',#221,#182,#183);
#152=AXIS2_PLACEMENT_3D('',#223,#184,#185);
#153=AXIS2_PLACEMENT_3D('',#226,#187,#188);
#154=AXIS2_PLACEMENT_3D('',#227,#189,#190);
#155=AXIS2_PLACEMENT_3D('',#228,#191,#192);
#156=AXIS2_PLACEMENT_3D('',#230,#193,#194);
#157=AXIS2_PLACEMENT_3D('',#233,#196,#197);
#158=AXIS2_PLACEMENT_3D('',#234,#198,#199);
#159=AXIS2_PLACEMENT_3D('',#235,#200,#201);
#160=DIRECTION('axis',(0.,0.,1.));
#161=DIRECTION('refdir',(1.,0.,0.));
#162=DIRECTION('center_axis',(0.,0.,-1.));
#163=DIRECTION('ref_axis',(-1.,0.,0.));
#164=DIRECTION('center_axis',(0.,0.,1.));
#165=DIRECTION('ref_axis',(-1.,0.,0.));
#166=DIRECTION('',(-0.857167300702112,-1.04972719113862E-16,0.515038074910054));
#167=DIRECTION('center_axis',(0.,0.,1.));
#168=DIRECTION('ref_axis',(-1.,0.,0.));
#169=DIRECTION('center_axis',(0.,0.,-1.));
#170=DIRECTION('ref_axis',(-1.,0.,0.));
#171=DIRECTION('',(0.,0.,1.));
#172=DIRECTION('center_axis',(0.,0.,1.));
#173=DIRECTION('ref_axis',(1.,0.,0.));
#174=DIRECTION('center_axis',(0.,0.,-1.));
#175=DIRECTION('ref_axis',(1.,0.,0.));
#176=DIRECTION('',(0.857167300702112,-1.04972719113862E-16,-0.515038074910054));
#177=DIRECTION('center_axis',(0.,0.,-1.));
#178=DIRECTION('ref_axis',(1.,0.,0.));
#179=DIRECTION('center_axis',(0.,0.,-1.));
#180=DIRECTION('ref_axis',(1.,0.,0.));
#181=DIRECTION('',(0.,0.,-1.));
#182=DIRECTION('center_axis',(0.,0.,1.));
#183=DIRECTION('ref_axis',(-1.,0.,0.));
#184=DIRECTION('center_axis',(0.,0.,1.));
#185=DIRECTION('ref_axis',(-1.,0.,0.));
#186=DIRECTION('',(0.,0.,-1.));
#187=DIRECTION('center_axis',(0.,0.,-1.));
#188=DIRECTION('ref_axis',(-1.,0.,0.));
#189=DIRECTION('center_axis',(0.,0.,1.));
#190=DIRECTION('ref_axis',(-1.,0.,0.));
#191=DIRECTION('center_axis',(0.,0.,1.));
#192=DIRECTION('ref_axis',(1.,0.,0.));
#193=DIRECTION('center_axis',(0.,0.,1.));
#194=DIRECTION('ref_axis',(1.,0.,0.));
#195=DIRECTION('',(0.,0.,-1.));
#196=DIRECTION('center_axis',(0.,0.,1.));
#197=DIRECTION('ref_axis',(1.,0.,0.));
#198=DIRECTION('center_axis',(0.,0.,1.));
#199=DIRECTION('ref_axis',(1.,0.,0.));
#200=DIRECTION('center_axis',(0.,0.,1.));
#201=DIRECTION('ref_axis',(1.,0.,0.));
#202=CARTESIAN_POINT('',(0.,0.,0.));
#203=CARTESIAN_POINT('Origin',(-89.9184417724609,0.120930224657059,16.523930114478));
#204=CARTESIAN_POINT('',(-88.2524417724609,0.120930224657059,16.));
#205=CARTESIAN_POINT('Origin',(-89.9184417724609,0.120930224657059,16.));
#206=CARTESIAN_POINT('',(-89.9184417724609,0.120930224657059,17.0010337912999));
#207=CARTESIAN_POINT('',(-89.1244079121722,0.120930224657059,16.523930114478));
#208=CARTESIAN_POINT('Origin',(-89.9184417724609,0.120930224657059,8.));
#209=CARTESIAN_POINT('',(-88.2524417724609,0.120930224657059,0.));
#210=CARTESIAN_POINT('Origin',(-89.9184417724609,0.120930224657059,0.));
#211=CARTESIAN_POINT('',(-88.2524417724609,0.120930224657059,8.));
#212=CARTESIAN_POINT('Origin',(-90.,0.,29.476069885522));
#213=CARTESIAN_POINT('',(-91.666,2.04026156737949E-16,30.));
#214=CARTESIAN_POINT('Origin',(-90.,0.,30.));
#215=CARTESIAN_POINT('',(-90.,0.,28.9989662087001));
#216=CARTESIAN_POINT('',(-90.7940338602888,9.7241102541726E-17,29.476069885522));
#217=CARTESIAN_POINT('Origin',(-90.,0.,36.));
#218=CARTESIAN_POINT('',(-91.666,2.04026156737949E-16,42.));
#219=CARTESIAN_POINT('Origin',(-90.,0.,42.));
#220=CARTESIAN_POINT('',(-91.666,2.04026156737949E-16,36.));
#221=CARTESIAN_POINT('Origin',(-90.,0.,5.));
#222=CARTESIAN_POINT('',(-87.,3.67394039744207E-16,42.));
#223=CARTESIAN_POINT('Origin',(-90.,0.,42.));
#224=CARTESIAN_POINT('',(-87.,3.67394039744207E-16,5.));
#225=CARTESIAN_POINT('',(-87.,3.67394039744207E-16,5.));
#226=CARTESIAN_POINT('Origin',(-90.,0.,5.));
#227=CARTESIAN_POINT('Origin',(-90.,0.,42.));
#228=CARTESIAN_POINT('Origin',(-90.,0.,0.));
#229=CARTESIAN_POINT('',(-94.,-4.89858719658942E-16,5.));
#230=CARTESIAN_POINT('Origin',(-90.,0.,5.));
#231=CARTESIAN_POINT('',(-94.,-4.89858719658942E-16,0.));
#232=CARTESIAN_POINT('',(-94.,-4.89858719658942E-16,0.));
#233=CARTESIAN_POINT('Origin',(-90.,0.,0.));
#234=CARTESIAN_POINT('Origin',(-90.,0.,5.));
#235=CARTESIAN_POINT('Origin',(-90.,0.,0.));
#236=UNCERTAINTY_MEASURE_WITH_UNIT(LENGTH_MEASURE(0.01),#240,
'DISTANCE_ACCURACY_VALUE',
'Maximum model space distance between geometric entities at asserted c
onnectivities');
#237=UNCERTAINTY_MEASURE_WITH_UNIT(LENGTH_MEASURE(0.01),#240,
'DISTANCE_ACCURACY_VALUE',
'Maximum model space distance between geometric entities at asserted c
onnectivities');
#238=(
GEOMETRIC_REPRESENTATION_CONTEXT(3)
GLOBAL_UNCERTAINTY_ASSIGNED_CONTEXT((#236))
GLOBAL_UNIT_ASSIGNED_CONTEXT((#240,#242,#243))
REPRESENTATION_CONTEXT('','3D')
);
#239=(
GEOMETRIC_REPRESENTATION_CONTEXT(3)
GLOBAL_UNCERTAINTY_ASSIGNED_CONTEXT((#237))
GLOBAL_UNIT_ASSIGNED_CONTEXT((#240,#242,#243))
REPRESENTATION_CONTEXT('','3D')
);
#240=(
LENGTH_UNIT()
NAMED_UNIT(*)
SI_UNIT(.MILLI.,.METRE.)
);
#241=(
LENGTH_UNIT()
NAMED_UNIT(*)
SI_UNIT($,.METRE.)
);
#242=(
NAMED_UNIT(*)
PLANE_ANGLE_UNIT()
SI_UNIT($,.RADIAN.)
);
#243=(
NAMED_UNIT(*)
SI_UNIT($,.STERADIAN.)
SOLID_ANGLE_UNIT()
);
#244=SHAPE_DEFINITION_REPRESENTATION(#245,#246);
#245=PRODUCT_DEFINITION_SHAPE('',$,#248);
#246=SHAPE_REPRESENTATION('',(#142),#238);
#247=PRODUCT_DEFINITION_CONTEXT('part definition',#252,'design');
#248=PRODUCT_DEFINITION('supmot','supmot v6',#249,#247);
#249=PRODUCT_DEFINITION_FORMATION('',$,#254);
#250=PRODUCT_RELATED_PRODUCT_CATEGORY('supmot v6','supmot v6',(#254));
#251=APPLICATION_PROTOCOL_DEFINITION('international standard',
'automotive_design',2009,#252);
#252=APPLICATION_CONTEXT(
'Core Data for Automotive Mechanical Design Process');
#253=PRODUCT_CONTEXT('part definition',#252,'mechanical');
#254=PRODUCT('supmot','supmot v6',$,(#253));
#255=PRESENTATION_STYLE_ASSIGNMENT((#256));
#256=SURFACE_STYLE_USAGE(.BOTH.,#257);
#257=SURFACE_SIDE_STYLE('',(#258));
#258=SURFACE_STYLE_FILL_AREA(#259);
#259=FILL_AREA_STYLE('Acier - Satin\X\E9',(#260));
#260=FILL_AREA_STYLE_COLOUR('Acier - Satin\X\E9',#261);
#261=COLOUR_RGB('Acier - Satin\X\E9',0.627450980392157,0.627450980392157,
0.627450980392157);
ENDSEC;
END-ISO-10303-21;
