ISO-10303-21;
HEADER;
FILE_DESCRIPTION (( 'STEP AP214' ),
    '1' );
FILE_NAME ('Tube.STEP',
    '2022-04-28T09:32:58',
    ( '' ),
    ( '' ),
    'SwSTEP 2.0',
    'SolidWorks 2021',
    '' );
FILE_SCHEMA (( 'AUTOMOTIVE_DESIGN' ));
ENDSEC;

DATA;
#1 = DIRECTION ( 'NONE',  ( 0.000000000000000000, 0.000000000000000000, 1.000000000000000000 ) ) ;
#2 = ORIENTED_EDGE ( 'NONE', *, *, #25, .T. ) ;
#3 = FACE_OUTER_BOUND ( 'NONE', #183, .T. ) ;
#4 = VERTEX_POINT ( 'NONE', #170 ) ;
#5 = DIRECTION ( 'NONE',  ( 1.000000000000000000, 0.000000000000000000, -0.000000000000000000 ) ) ;
#6 = ORIENTED_EDGE ( 'NONE', *, *, #210, .F. ) ;
#7 = EDGE_CURVE ( 'NONE', #340, #151, #317, .T. ) ;
#8 = DIRECTION ( 'NONE',  ( 0.000000000000000000, 0.000000000000000000, 1.000000000000000000 ) ) ;
#9 = DIRECTION ( 'NONE',  ( -0.000000000000000000, -0.000000000000000000, -1.000000000000000000 ) ) ;
#10 = ORIENTED_EDGE ( 'NONE', *, *, #52, .T. ) ;
#11 = AXIS2_PLACEMENT_3D ( 'NONE', #332, #157, #392 ) ;
#12 = AXIS2_PLACEMENT_3D ( 'NONE', #329, #117, #149 ) ;
#13 = CARTESIAN_POINT ( 'NONE',  ( 2.999999999999999556, 0.000000000000000000, 190.0000000000000000 ) ) ;
#14 = ADVANCED_FACE ( 'NONE', ( #312 ), #35, .F. ) ;
#15 = DIRECTION ( 'NONE',  ( 1.000000000000000000, -0.000000000000000000, -0.000000000000000000 ) ) ;
#16 = CARTESIAN_POINT ( 'NONE',  ( -2.999999999999999556, 0.000000000000000000, 190.0000000000000000 ) ) ;
#17 = COLOUR_RGB ( '',0.8980392156862745390, 0.8980392156862745390, 0.8980392156862745390 ) ;
#18 = AXIS2_PLACEMENT_3D ( 'NONE', #240, #298, #302 ) ;
#19 = EDGE_CURVE ( 'NONE', #241, #185, #372, .T. ) ;
#20 = DIRECTION ( 'NONE',  ( 0.000000000000000000, 0.000000000000000000, 1.000000000000000000 ) ) ;
#21 = LINE ( 'NONE', #268, #178 ) ;
#22 = STYLED_ITEM ( 'NONE', ( #247 ), #337 ) ;
#23 = CIRCLE ( 'NONE', #70, 4.000000000000000000 ) ;
#24 = VERTEX_POINT ( 'NONE', #341 ) ;
#25 = EDGE_CURVE ( 'NONE', #252, #246, #174, .T. ) ;
#26 = LINE ( 'NONE', #147, #145 ) ;
#27 = DIRECTION ( 'NONE',  ( -1.000000000000000000, 0.000000000000000000, 0.000000000000000000 ) ) ;
#28 = ORIENTED_EDGE ( 'NONE', *, *, #177, .T. ) ;
#29 = DIRECTION ( 'NONE',  ( -0.000000000000000000, -0.000000000000000000, -1.000000000000000000 ) ) ;
#30 = ADVANCED_FACE ( 'NONE', ( #256 ), #374, .F. ) ;
#31 = VECTOR ( 'NONE', #305, 1000.000000000000000 ) ;
#32 = DIRECTION ( 'NONE',  ( 1.000000000000000000, 0.000000000000000000, 0.000000000000000000 ) ) ;
#33 = VERTEX_POINT ( 'NONE', #200 ) ;
#34 = DIRECTION ( 'NONE',  ( -1.000000000000000000, 0.000000000000000000, 0.000000000000000000 ) ) ;
#35 = CYLINDRICAL_SURFACE ( 'NONE', #350, 3.000000000000000000 ) ;
#36 = CARTESIAN_POINT ( 'NONE',  ( -3.000000000000000000, 0.000000000000000000, 0.000000000000000000 ) ) ;
#37 = PRODUCT ( 'Tube', 'Tube', '', ( #48 ) ) ;
#38 = VERTEX_POINT ( 'NONE', #266 ) ;
#39 = EDGE_LOOP ( 'NONE', ( #365, #138, #66, #195, #338, #57, #88, #361 ) ) ;
#40 = CARTESIAN_POINT ( 'NONE',  ( -4.000000000000000000, 0.000000000000000000, 190.0000000000000000 ) ) ;
#41 = VERTEX_POINT ( 'NONE', #384 ) ;
#42 = EDGE_CURVE ( 'NONE', #272, #236, #78, .T. ) ;
#43 = ORIENTED_EDGE ( 'NONE', *, *, #281, .F. ) ;
#44 = AXIS2_PLACEMENT_3D ( 'NONE', #64, #1, #5 ) ;
#45 = DIRECTION ( 'NONE',  ( -0.000000000000000000, -0.000000000000000000, -1.000000000000000000 ) ) ;
#46 = FILL_AREA_STYLE ('',( #257 ) ) ;
#47 = DIRECTION ( 'NONE',  ( 1.000000000000000000, 0.000000000000000000, 0.000000000000000000 ) ) ;
#48 = PRODUCT_CONTEXT ( 'NONE', #105, 'mechanical' ) ;
#49 = VECTOR ( 'NONE', #216, 1000.000000000000000 ) ;
#50 = DIRECTION ( 'NONE',  ( 1.000000000000000000, 0.000000000000000000, 0.000000000000000000 ) ) ;
#51 = FACE_BOUND ( 'NONE', #96, .T. ) ;
#52 = EDGE_CURVE ( 'NONE', #185, #340, #391, .T. ) ;
#53 = PRODUCT_DEFINITION_CONTEXT ( 'detailed design', #202, 'design' ) ;
#54 = DIRECTION ( 'NONE',  ( -1.000000000000000000, 0.000000000000000000, 0.000000000000000000 ) ) ;
#55 = CARTESIAN_POINT ( 'NONE',  ( 0.000000000000000000, 0.000000000000000000, 190.0000000000000000 ) ) ;
#56 = LINE ( 'NONE', #279, #158 ) ;
#57 = ORIENTED_EDGE ( 'NONE', *, *, #360, .F. ) ;
#58 = FACE_BOUND ( 'NONE', #390, .T. ) ;
#59 =( GEOMETRIC_REPRESENTATION_CONTEXT ( 3 ) GLOBAL_UNCERTAINTY_ASSIGNED_CONTEXT ( ( #205 ) ) GLOBAL_UNIT_ASSIGNED_CONTEXT ( ( #375, #140, #111 ) ) REPRESENTATION_CONTEXT ( 'NONE', 'WORKASPACE' ) );
#60 = ORIENTED_EDGE ( 'NONE', *, *, #345, .F. ) ;
#61 = AXIS2_PLACEMENT_3D ( 'NONE', #207, #327, #270 ) ;
#62 = FACE_OUTER_BOUND ( 'NONE', #314, .T. ) ;
#63 = ORIENTED_EDGE ( 'NONE', *, *, #42, .F. ) ;
#64 = CARTESIAN_POINT ( 'NONE',  ( 0.000000000000000000, 0.000000000000000000, 0.000000000000000000 ) ) ;
#65 = EDGE_CURVE ( 'NONE', #151, #33, #198, .T. ) ;
#66 = ORIENTED_EDGE ( 'NONE', *, *, #7, .T. ) ;
#67 = DIRECTION ( 'NONE',  ( -0.000000000000000000, -0.000000000000000000, -1.000000000000000000 ) ) ;
#68 = CARTESIAN_POINT ( 'NONE',  ( 0.000000000000000000, 0.000000000000000000, 0.000000000000000000 ) ) ;
#69 = PRESENTATION_LAYER_ASSIGNMENT (  '', '', ( #22 ) ) ;
#70 = AXIS2_PLACEMENT_3D ( 'NONE', #324, #235, #379 ) ;
#71 =( LENGTH_UNIT ( ) NAMED_UNIT ( * ) SI_UNIT ( .MILLI., .METRE. ) );
#72 = DIRECTION ( 'NONE',  ( 0.000000000000000000, -0.000000000000000000, 1.000000000000000000 ) ) ;
#73 = ADVANCED_FACE ( 'NONE', ( #387 ), #139, .F. ) ;
#74 = ORIENTED_EDGE ( 'NONE', *, *, #19, .T. ) ;
#75 = LINE ( 'NONE', #108, #335 ) ;
#76 = CARTESIAN_POINT ( 'NONE',  ( -5.999999999999944933, -4.000000000000000000, 182.9499999999999886 ) ) ;
#77 = DIRECTION ( 'NONE',  ( 1.000000000000000000, -0.000000000000000000, -0.000000000000000000 ) ) ;
#78 = CIRCLE ( 'NONE', #87, 3.000000000000000000 ) ;
#79 = CARTESIAN_POINT ( 'NONE',  ( 0.000000000000000000, 0.000000000000000000, 0.000000000000000000 ) ) ;
#80 = CARTESIAN_POINT ( 'NONE',  ( -3.999999999999999112, 0.000000000000000000, 190.0000000000000000 ) ) ;
#81 = VECTOR ( 'NONE', #339, 1000.000000000000000 ) ;
#82 = EDGE_CURVE ( 'NONE', #116, #24, #316, .T. ) ;
#83 = CARTESIAN_POINT ( 'NONE',  ( 0.000000000000000000, 0.000000000000000000, 184.5000000000000000 ) ) ;
#84 = ORIENTED_EDGE ( 'NONE', *, *, #380, .F. ) ;
#85 = CYLINDRICAL_SURFACE ( 'NONE', #301, 4.000000000000000000 ) ;
#86 = DIRECTION ( 'NONE',  ( 1.000000000000000000, 0.000000000000000000, -0.000000000000000000 ) ) ;
#87 = AXIS2_PLACEMENT_3D ( 'NONE', #83, #119, #184 ) ;
#88 = ORIENTED_EDGE ( 'NONE', *, *, #210, .T. ) ;
#89 = PLANE ( 'NONE',  #44 ) ;
#90 = EDGE_LOOP ( 'NONE', ( #334, #128, #153, #156 ) ) ;
#91 = EDGE_CURVE ( 'NONE', #218, #38, #289, .T. ) ;
#92 = SURFACE_SIDE_STYLE ('',( #364 ) ) ;
#93 = ORIENTED_EDGE ( 'NONE', *, *, #373, .T. ) ;
#94 = DIRECTION ( 'NONE',  ( 0.000000000000000000, -0.000000000000000000, 1.000000000000000000 ) ) ;
#95 = CIRCLE ( 'NONE', #191, 3.000000000000000000 ) ;
#96 = EDGE_LOOP ( 'NONE', ( #320, #367 ) ) ;
#97 = CARTESIAN_POINT ( 'NONE',  ( 0.000000000000000000, 0.000000000000000000, 190.0000000000000000 ) ) ;
#98 = PRODUCT_RELATED_PRODUCT_CATEGORY ( 'part', '', ( #37 ) ) ;
#99 = ORIENTED_EDGE ( 'NONE', *, *, #161, .F. ) ;
#100 = CARTESIAN_POINT ( 'NONE',  ( 2.999999999999995559, 0.000000000000000000, 184.5000000000000000 ) ) ;
#101 = CARTESIAN_POINT ( 'NONE',  ( -4.000000000000000000, 0.000000000000000000, 190.0000000000000000 ) ) ;
#102 = APPLICATION_PROTOCOL_DEFINITION ( 'draft international standard', 'automotive_design', 1998, #105 ) ;
#103 = EDGE_LOOP ( 'NONE', ( #358, #278, #254, #133 ) ) ;
#104 = ADVANCED_FACE ( 'NONE', ( #141, #51 ), #262, .T. ) ;
#105 = APPLICATION_CONTEXT ( 'automotive_design' ) ;
#106 = AXIS2_PLACEMENT_3D ( 'NONE', #295, #359, #50 ) ;
#107 = EDGE_LOOP ( 'NONE', ( #269, #319, #63, #167 ) ) ;
#108 = CARTESIAN_POINT ( 'NONE',  ( -3.000000000000000000, 0.000000000000000000, 190.0000000000000000 ) ) ;
#109 = FACE_OUTER_BOUND ( 'NONE', #39, .T. ) ;
#110 = CIRCLE ( 'NONE', #11, 3.000000000000000000 ) ;
#111 =( NAMED_UNIT ( * ) SI_UNIT ( $, .STERADIAN. ) SOLID_ANGLE_UNIT ( ) );
#112 = DIRECTION ( 'NONE',  ( 0.000000000000000000, 0.000000000000000000, 1.000000000000000000 ) ) ;
#113 = MECHANICAL_DESIGN_GEOMETRIC_PRESENTATION_REPRESENTATION (  '', ( #288 ), #130 ) ;
#114 = DIRECTION ( 'NONE',  ( -0.000000000000000000, -0.000000000000000000, -1.000000000000000000 ) ) ;
#115 = AXIS2_PLACEMENT_3D ( 'NONE', #55, #187, #27 ) ;
#116 = VERTEX_POINT ( 'NONE', #238 ) ;
#117 = DIRECTION ( 'NONE',  ( 0.000000000000000000, -0.000000000000000000, 1.000000000000000000 ) ) ;
#118 = ORIENTED_EDGE ( 'NONE', *, *, #244, .T. ) ;
#119 = DIRECTION ( 'NONE',  ( 0.000000000000000000, -0.000000000000000000, 1.000000000000000000 ) ) ;
#120 = UNCERTAINTY_MEASURE_WITH_UNIT (LENGTH_MEASURE( 1.000000000000000082E-05 ), #71, 'distance_accuracy_value', 'NONE');
#121 = ORIENTED_EDGE ( 'NONE', *, *, #380, .T. ) ;
#122 = CARTESIAN_POINT ( 'NONE',  ( 0.000000000000000000, 0.000000000000000000, 190.0000000000000000 ) ) ;
#123 = COLOUR_RGB ( '',0.6509803921568627638, 0.6196078431372549211, 0.5882352941176470784 ) ;
#124 = AXIS2_PLACEMENT_3D ( 'NONE', #76, #176, #353 ) ;
#125 = LINE ( 'NONE', #318, #342 ) ;
#126 = ORIENTED_EDGE ( 'NONE', *, *, #65, .T. ) ;
#127 = FILL_AREA_STYLE_COLOUR ( '', #17 ) ;
#128 = ORIENTED_EDGE ( 'NONE', *, *, #42, .T. ) ;
#129 = CARTESIAN_POINT ( 'NONE',  ( 0.000000000000000000, 0.000000000000000000, 190.0000000000000000 ) ) ;
#130 =( GEOMETRIC_REPRESENTATION_CONTEXT ( 3 ) GLOBAL_UNCERTAINTY_ASSIGNED_CONTEXT ( ( #120 ) ) GLOBAL_UNIT_ASSIGNED_CONTEXT ( ( #71, #171, #378 ) ) REPRESENTATION_CONTEXT ( 'NONE', 'WORKASPACE' ) );
#131 = DIRECTION ( 'NONE',  ( -0.000000000000000000, -0.000000000000000000, -1.000000000000000000 ) ) ;
#132 = CARTESIAN_POINT ( 'NONE',  ( 2.999999999999999556, 0.000000000000000000, 182.9499999999999886 ) ) ;
#133 = ORIENTED_EDGE ( 'NONE', *, *, #7, .F. ) ;
#134 = DIRECTION ( 'NONE',  ( 1.000000000000000000, 0.000000000000000000, 0.000000000000000000 ) ) ;
#135 = PRESENTATION_STYLE_ASSIGNMENT (( #224 ) ) ;
#136 = EDGE_CURVE ( 'NONE', #151, #38, #26, .T. ) ;
#137 = CIRCLE ( 'NONE', #299, 4.000000000000000000 ) ;
#138 = ORIENTED_EDGE ( 'NONE', *, *, #154, .T. ) ;
#139 = PLANE ( 'NONE',  #12 ) ;
#140 =( NAMED_UNIT ( * ) PLANE_ANGLE_UNIT ( ) SI_UNIT ( $, .RADIAN. ) );
#141 = FACE_OUTER_BOUND ( 'NONE', #239, .T. ) ;
#142 = EDGE_CURVE ( 'NONE', #116, #272, #381, .T. ) ;
#143 =( NAMED_UNIT ( * ) PLANE_ANGLE_UNIT ( ) SI_UNIT ( $, .RADIAN. ) );
#144 = AXIS2_PLACEMENT_3D ( 'NONE', #362, #29, #34 ) ;
#145 = VECTOR ( 'NONE', #230, 1000.000000000000000 ) ;
#146 = EDGE_CURVE ( 'NONE', #236, #340, #21, .T. ) ;
#147 = CARTESIAN_POINT ( 'NONE',  ( 4.000000000000000000, 4.898587196589412829E-16, 190.0000000000000000 ) ) ;
#148 =( GEOMETRIC_REPRESENTATION_CONTEXT ( 3 ) GLOBAL_UNCERTAINTY_ASSIGNED_CONTEXT ( ( #181 ) ) GLOBAL_UNIT_ASSIGNED_CONTEXT ( ( #260, #143, #175 ) ) REPRESENTATION_CONTEXT ( 'NONE', 'WORKASPACE' ) );
#149 = DIRECTION ( 'NONE',  ( 1.000000000000000000, 0.000000000000000000, -0.000000000000000000 ) ) ;
#150 = CIRCLE ( 'NONE', #368, 4.000000000000000000 ) ;
#151 = VERTEX_POINT ( 'NONE', #209 ) ;
#152 = CARTESIAN_POINT ( 'NONE',  ( -4.000000000000000000, 0.000000000000000000, 184.5000000000000000 ) ) ;
#153 = ORIENTED_EDGE ( 'NONE', *, *, #146, .T. ) ;
#154 = EDGE_CURVE ( 'NONE', #41, #340, #211, .T. ) ;
#155 = CARTESIAN_POINT ( 'NONE',  ( 0.000000000000000000, 0.000000000000000000, 0.000000000000000000 ) ) ;
#156 = ORIENTED_EDGE ( 'NONE', *, *, #52, .F. ) ;
#157 = DIRECTION ( 'NONE',  ( 0.000000000000000000, 0.000000000000000000, -1.000000000000000000 ) ) ;
#158 = VECTOR ( 'NONE', #192, 1000.000000000000000 ) ;
#159 = ORIENTED_EDGE ( 'NONE', *, *, #169, .T. ) ;
#160 = FACE_OUTER_BOUND ( 'NONE', #201, .T. ) ;
#161 = EDGE_CURVE ( 'NONE', #236, #249, #208, .T. ) ;
#162 = DIRECTION ( 'NONE',  ( 0.000000000000000000, 1.000000000000000000, 0.000000000000000000 ) ) ;
#163 = CARTESIAN_POINT ( 'NONE',  ( 0.000000000000000000, 0.000000000000000000, 190.0000000000000000 ) ) ;
#164 = FACE_OUTER_BOUND ( 'NONE', #330, .T. ) ;
#165 = AXIS2_PLACEMENT_3D ( 'NONE', #271, #162, #94 ) ;
#166 = DIRECTION ( 'NONE',  ( -1.000000000000000000, 0.000000000000000000, 0.000000000000000000 ) ) ;
#167 = ORIENTED_EDGE ( 'NONE', *, *, #142, .F. ) ;
#168 = CARTESIAN_POINT ( 'NONE',  ( 3.999999999999994671, 0.000000000000000000, 184.5000000000000000 ) ) ;
#169 = EDGE_CURVE ( 'NONE', #41, #241, #150, .T. ) ;
#170 = CARTESIAN_POINT ( 'NONE',  ( -2.999999999999999556, 0.000000000000000000, 182.9499999999999886 ) ) ;
#171 =( NAMED_UNIT ( * ) PLANE_ANGLE_UNIT ( ) SI_UNIT ( $, .RADIAN. ) );
#172 = VECTOR ( 'NONE', #9, 1000.000000000000000 ) ;
#173 = CARTESIAN_POINT ( 'NONE',  ( 0.000000000000000000, 0.000000000000000000, 190.0000000000000000 ) ) ;
#174 = CIRCLE ( 'NONE', #354, 3.000000000000000000 ) ;
#175 =( NAMED_UNIT ( * ) SI_UNIT ( $, .STERADIAN. ) SOLID_ANGLE_UNIT ( ) );
#176 = DIRECTION ( 'NONE',  ( 0.000000000000000000, 0.000000000000000000, -1.000000000000000000 ) ) ;
#177 = EDGE_CURVE ( 'NONE', #241, #41, #23, .T. ) ;
#178 = VECTOR ( 'NONE', #15, 1000.000000000000000 ) ;
#179 = ADVANCED_FACE ( 'NONE', ( #109 ), #85, .T. ) ;
#180 = DIRECTION ( 'NONE',  ( 0.000000000000000000, 0.000000000000000000, 1.000000000000000000 ) ) ;
#181 = UNCERTAINTY_MEASURE_WITH_UNIT (LENGTH_MEASURE( 1.000000000000000082E-05 ), #260, 'distance_accuracy_value', 'NONE');
#182 = CARTESIAN_POINT ( 'NONE',  ( 0.000000000000000000, 0.000000000000000000, 190.0000000000000000 ) ) ;
#183 = EDGE_LOOP ( 'NONE', ( #377, #197, #227, #363 ) ) ;
#184 = DIRECTION ( 'NONE',  ( 1.000000000000000000, 0.000000000000000000, 0.000000000000000000 ) ) ;
#185 = VERTEX_POINT ( 'NONE', #152 ) ;
#186 = ADVANCED_FACE ( 'NONE', ( #233 ), #347, .F. ) ;
#187 = DIRECTION ( 'NONE',  ( -0.000000000000000000, -0.000000000000000000, -1.000000000000000000 ) ) ;
#188 = ORIENTED_EDGE ( 'NONE', *, *, #311, .T. ) ;
#189 = FACE_OUTER_BOUND ( 'NONE', #259, .T. ) ;
#190 = ORIENTED_EDGE ( 'NONE', *, *, #142, .T. ) ;
#191 = AXIS2_PLACEMENT_3D ( 'NONE', #155, #212, #32 ) ;
#192 = DIRECTION ( 'NONE',  ( 1.000000000000000000, -0.000000000000000000, -0.000000000000000000 ) ) ;
#193 = VECTOR ( 'NONE', #357, 1000.000000000000000 ) ;
#194 = CYLINDRICAL_SURFACE ( 'NONE', #203, 3.000000000000000000 ) ;
#195 = ORIENTED_EDGE ( 'NONE', *, *, #136, .T. ) ;
#196 = DIRECTION ( 'NONE',  ( 0.000000000000000000, 0.000000000000000000, 1.000000000000000000 ) ) ;
#197 = ORIENTED_EDGE ( 'NONE', *, *, #393, .T. ) ;
#198 = CIRCLE ( 'NONE', #61, 4.000000000000000000 ) ;
#199 = ORIENTED_EDGE ( 'NONE', *, *, #393, .F. ) ;
#200 = CARTESIAN_POINT ( 'NONE',  ( -3.999999999999999112, 0.000000000000000000, 182.9499999999999886 ) ) ;
#201 = EDGE_LOOP ( 'NONE', ( #303, #126, #370, #385 ) ) ;
#202 = APPLICATION_CONTEXT ( 'automotive_design' ) ;
#203 = AXIS2_PLACEMENT_3D ( 'NONE', #122, #274, #243 ) ;
#204 = CARTESIAN_POINT ( 'NONE',  ( 0.000000000000000000, 0.000000000000000000, 190.0000000000000000 ) ) ;
#205 = UNCERTAINTY_MEASURE_WITH_UNIT (LENGTH_MEASURE( 1.000000000000000082E-05 ), #375, 'distance_accuracy_value', 'NONE');
#206 = AXIS2_PLACEMENT_3D ( 'NONE', #129, #196, #366 ) ;
#207 = CARTESIAN_POINT ( 'NONE',  ( 0.000000000000000000, 0.000000000000000000, 182.9499999999999886 ) ) ;
#208 = LINE ( 'NONE', #13, #242 ) ;
#209 = CARTESIAN_POINT ( 'NONE',  ( 3.999999999999999112, 0.000000000000000000, 182.9499999999999886 ) ) ;
#210 = EDGE_CURVE ( 'NONE', #33, #185, #292, .T. ) ;
#211 = LINE ( 'NONE', #386, #193 ) ;
#212 = DIRECTION ( 'NONE',  ( 0.000000000000000000, 0.000000000000000000, 1.000000000000000000 ) ) ;
#213 = EDGE_CURVE ( 'NONE', #185, #272, #56, .T. ) ;
#214 = DIRECTION ( 'NONE',  ( -1.000000000000000000, 0.000000000000000000, 0.000000000000000000 ) ) ;
#215 = ORIENTED_EDGE ( 'NONE', *, *, #154, .F. ) ;
#216 = DIRECTION ( 'NONE',  ( 0.000000000000000000, 0.000000000000000000, 1.000000000000000000 ) ) ;
#217 = AXIS2_PLACEMENT_3D ( 'NONE', #97, #253, #214 ) ;
#218 = VERTEX_POINT ( 'NONE', #282 ) ;
#219 = CARTESIAN_POINT ( 'NONE',  ( -4.000000000000000000, 0.000000000000000000, 190.0000000000000000 ) ) ;
#220 = ORIENTED_EDGE ( 'NONE', *, *, #177, .F. ) ;
#221 = CARTESIAN_POINT ( 'NONE',  ( -3.000000000000000444, 0.000000000000000000, 184.5000000000000000 ) ) ;
#222 = ADVANCED_FACE ( 'NONE', ( #3 ), #371, .F. ) ;
#223 = DIRECTION ( 'NONE',  ( -0.000000000000000000, -0.000000000000000000, -1.000000000000000000 ) ) ;
#224 = SURFACE_STYLE_USAGE ( .BOTH. , #255 ) ;
#225 = CARTESIAN_POINT ( 'NONE',  ( -5.999999999999944933, 0.000000000000000000, 184.5000000000000000 ) ) ;
#226 = SURFACE_STYLE_FILL_AREA ( #46 ) ;
#227 = ORIENTED_EDGE ( 'NONE', *, *, #25, .F. ) ;
#228 = ADVANCED_FACE ( 'NONE', ( #189 ), #277, .T. ) ;
#229 = CARTESIAN_POINT ( 'NONE',  ( 3.000000000000000000, 3.673940397442059868E-16, 190.0000000000000000 ) ) ;
#230 = DIRECTION ( 'NONE',  ( -0.000000000000000000, -0.000000000000000000, -1.000000000000000000 ) ) ;
#231 = DIRECTION ( 'NONE',  ( 0.000000000000000000, 0.000000000000000000, 1.000000000000000000 ) ) ;
#232 = EDGE_CURVE ( 'NONE', #24, #116, #376, .T. ) ;
#233 = FACE_OUTER_BOUND ( 'NONE', #346, .T. ) ;
#234 = PRESENTATION_LAYER_ASSIGNMENT (  '', '', ( #288 ) ) ;
#235 = DIRECTION ( 'NONE',  ( 0.000000000000000000, 0.000000000000000000, 1.000000000000000000 ) ) ;
#236 = VERTEX_POINT ( 'NONE', #100 ) ;
#237 = EDGE_CURVE ( 'NONE', #24, #236, #313, .T. ) ;
#238 = CARTESIAN_POINT ( 'NONE',  ( -3.000000000000000000, 0.000000000000000000, 190.0000000000000000 ) ) ;
#239 = EDGE_LOOP ( 'NONE', ( #28, #159 ) ) ;
#240 = CARTESIAN_POINT ( 'NONE',  ( 0.000000000000000000, 0.000000000000000000, 0.000000000000000000 ) ) ;
#241 = VERTEX_POINT ( 'NONE', #219 ) ;
#242 = VECTOR ( 'NONE', #331, 1000.000000000000000 ) ;
#243 = DIRECTION ( 'NONE',  ( -1.000000000000000000, 0.000000000000000000, 0.000000000000000000 ) ) ;
#244 = EDGE_CURVE ( 'NONE', #33, #4, #369, .T. ) ;
#245 = FILL_AREA_STYLE ('',( #127 ) ) ;
#246 = VERTEX_POINT ( 'NONE', #304 ) ;
#247 = PRESENTATION_STYLE_ASSIGNMENT (( #333 ) ) ;
#248 = ADVANCED_BREP_SHAPE_REPRESENTATION ( 'Tube', ( #337, #267 ), #59 ) ;
#249 = VERTEX_POINT ( 'NONE', #132 ) ;
#250 = CARTESIAN_POINT ( 'NONE',  ( 3.000000000000000000, 3.673940397442059868E-16, 190.0000000000000000 ) ) ;
#251 = VECTOR ( 'NONE', #223, 1000.000000000000000 ) ;
#252 = VERTEX_POINT ( 'NONE', #36 ) ;
#253 = DIRECTION ( 'NONE',  ( -0.000000000000000000, -0.000000000000000000, -1.000000000000000000 ) ) ;
#254 = ORIENTED_EDGE ( 'NONE', *, *, #345, .T. ) ;
#255 = SURFACE_SIDE_STYLE ('',( #226 ) ) ;
#256 = FACE_OUTER_BOUND ( 'NONE', #103, .T. ) ;
#257 = FILL_AREA_STYLE_COLOUR ( '', #123 ) ;
#258 = AXIS2_PLACEMENT_3D ( 'NONE', #204, #180, #355 ) ;
#259 = EDGE_LOOP ( 'NONE', ( #215, #220, #74, #10 ) ) ;
#260 =( LENGTH_UNIT ( ) NAMED_UNIT ( * ) SI_UNIT ( .MILLI., .METRE. ) );
#261 = DIRECTION ( 'NONE',  ( 1.000000000000000000, 0.000000000000000000, 0.000000000000000000 ) ) ;
#262 = PLANE ( 'NONE',  #323 ) ;
#263 = LINE ( 'NONE', #40, #383 ) ;
#264 = VECTOR ( 'NONE', #321, 1000.000000000000000 ) ;
#265 = ADVANCED_FACE ( 'NONE', ( #164, #58 ), #89, .F. ) ;
#266 = CARTESIAN_POINT ( 'NONE',  ( 4.000000000000000000, 4.898587196589412829E-16, 0.000000000000000000 ) ) ;
#267 = AXIS2_PLACEMENT_3D ( 'NONE', #79, #351, #47 ) ;
#268 = CARTESIAN_POINT ( 'NONE',  ( -5.999999999999944933, 0.000000000000000000, 184.5000000000000000 ) ) ;
#269 = ORIENTED_EDGE ( 'NONE', *, *, #82, .T. ) ;
#270 = DIRECTION ( 'NONE',  ( -1.000000000000000000, 0.000000000000000000, 0.000000000000000000 ) ) ;
#271 = CARTESIAN_POINT ( 'NONE',  ( -5.999999999999944933, 0.000000000000000000, 184.5000000000000000 ) ) ;
#272 = VERTEX_POINT ( 'NONE', #221 ) ;
#273 = VECTOR ( 'NONE', #131, 1000.000000000000000 ) ;
#274 = DIRECTION ( 'NONE',  ( -0.000000000000000000, -0.000000000000000000, -1.000000000000000000 ) ) ;
#275 = PRODUCT_DEFINITION ( 'UNKNOWN', '', #349, #53 ) ;
#276 = ORIENTED_EDGE ( 'NONE', *, *, #281, .T. ) ;
#277 = CYLINDRICAL_SURFACE ( 'NONE', #217, 4.000000000000000000 ) ;
#278 = ORIENTED_EDGE ( 'NONE', *, *, #161, .T. ) ;
#279 = CARTESIAN_POINT ( 'NONE',  ( -5.999999999999944933, 0.000000000000000000, 184.5000000000000000 ) ) ;
#280 = DIRECTION ( 'NONE',  ( -0.000000000000000000, -0.000000000000000000, -1.000000000000000000 ) ) ;
#281 = EDGE_CURVE ( 'NONE', #246, #252, #95, .T. ) ;
#282 = CARTESIAN_POINT ( 'NONE',  ( -4.000000000000000000, 0.000000000000000000, 0.000000000000000000 ) ) ;
#283 = ORIENTED_EDGE ( 'NONE', *, *, #65, .F. ) ;
#284 = ORIENTED_EDGE ( 'NONE', *, *, #237, .F. ) ;
#285 = LINE ( 'NONE', #16, #264 ) ;
#286 = ADVANCED_FACE ( 'NONE', ( #62 ), #307, .F. ) ;
#287 = CARTESIAN_POINT ( 'NONE',  ( 3.999999999999999112, 0.000000000000000000, 190.0000000000000000 ) ) ;
#288 = STYLED_ITEM ( 'NONE', ( #135 ), #248 ) ;
#289 = CIRCLE ( 'NONE', #18, 4.000000000000000000 ) ;
#290 = CARTESIAN_POINT ( 'NONE',  ( 0.000000000000000000, 0.000000000000000000, 190.0000000000000000 ) ) ;
#291 = DIRECTION ( 'NONE',  ( 1.000000000000000000, 0.000000000000000000, 0.000000000000000000 ) ) ;
#292 = LINE ( 'NONE', #80, #49 ) ;
#293 = ADVANCED_FACE ( 'NONE', ( #389 ), #194, .F. ) ;
#294 = CLOSED_SHELL ( 'NONE', ( #14, #222, #179, #228, #104, #265, #296, #293, #73, #30, #286, #186 ) ) ;
#295 = CARTESIAN_POINT ( 'NONE',  ( 0.000000000000000000, 0.000000000000000000, 184.5000000000000000 ) ) ;
#296 = ADVANCED_FACE ( 'NONE', ( #160 ), #309, .T. ) ;
#297 = SHAPE_DEFINITION_REPRESENTATION ( #310, #248 ) ;
#298 = DIRECTION ( 'NONE',  ( 0.000000000000000000, 0.000000000000000000, 1.000000000000000000 ) ) ;
#299 = AXIS2_PLACEMENT_3D ( 'NONE', #315, #231, #291 ) ;
#300 = EDGE_LOOP ( 'NONE', ( #284, #388, #190, #84, #93, #43, #199, #99 ) ) ;
#301 = AXIS2_PLACEMENT_3D ( 'NONE', #182, #45, #54 ) ;
#302 = DIRECTION ( 'NONE',  ( 1.000000000000000000, 0.000000000000000000, 0.000000000000000000 ) ) ;
#303 = ORIENTED_EDGE ( 'NONE', *, *, #136, .F. ) ;
#304 = CARTESIAN_POINT ( 'NONE',  ( 3.000000000000000000, 3.673940397442059868E-16, 0.000000000000000000 ) ) ;
#305 = DIRECTION ( 'NONE',  ( -0.000000000000000000, -0.000000000000000000, -1.000000000000000000 ) ) ;
#306 = ORIENTED_EDGE ( 'NONE', *, *, #91, .F. ) ;
#307 = PLANE ( 'NONE',  #165 ) ;
#308 = ORIENTED_EDGE ( 'NONE', *, *, #244, .F. ) ;
#309 = CYLINDRICAL_SURFACE ( 'NONE', #144, 4.000000000000000000 ) ;
#310 = PRODUCT_DEFINITION_SHAPE ( 'NONE', 'NONE',  #275 ) ;
#311 = EDGE_CURVE ( 'NONE', #249, #4, #110, .T. ) ;
#312 = FACE_OUTER_BOUND ( 'NONE', #107, .T. ) ;
#313 = LINE ( 'NONE', #250, #31 ) ;
#314 = EDGE_LOOP ( 'NONE', ( #118, #121, #356, #6 ) ) ;
#315 = CARTESIAN_POINT ( 'NONE',  ( 0.000000000000000000, 0.000000000000000000, 0.000000000000000000 ) ) ;
#316 = CIRCLE ( 'NONE', #258, 3.000000000000000000 ) ;
#317 = LINE ( 'NONE', #287, #273 ) ;
#318 = CARTESIAN_POINT ( 'NONE',  ( -5.999999999999944933, 0.000000000000000000, 182.9499999999999886 ) ) ;
#319 = ORIENTED_EDGE ( 'NONE', *, *, #237, .T. ) ;
#320 = ORIENTED_EDGE ( 'NONE', *, *, #82, .F. ) ;
#321 = DIRECTION ( 'NONE',  ( 0.000000000000000000, 0.000000000000000000, 1.000000000000000000 ) ) ;
#322 = MECHANICAL_DESIGN_GEOMETRIC_PRESENTATION_REPRESENTATION (  '', ( #22 ), #148 ) ;
#323 = AXIS2_PLACEMENT_3D ( 'NONE', #290, #20, #86 ) ;
#324 = CARTESIAN_POINT ( 'NONE',  ( 0.000000000000000000, 0.000000000000000000, 190.0000000000000000 ) ) ;
#325 = VECTOR ( 'NONE', #114, 1000.000000000000000 ) ;
#326 = CARTESIAN_POINT ( 'NONE',  ( -3.000000000000000000, 0.000000000000000000, 190.0000000000000000 ) ) ;
#327 = DIRECTION ( 'NONE',  ( 0.000000000000000000, 0.000000000000000000, -1.000000000000000000 ) ) ;
#328 = APPLICATION_PROTOCOL_DEFINITION ( 'draft international standard', 'automotive_design', 1998, #202 ) ;
#329 = CARTESIAN_POINT ( 'NONE',  ( -5.999999999999944933, -4.000000000000000000, 184.5000000000000000 ) ) ;
#330 = EDGE_LOOP ( 'NONE', ( #306, #394 ) ) ;
#331 = DIRECTION ( 'NONE',  ( -0.000000000000000000, -0.000000000000000000, -1.000000000000000000 ) ) ;
#332 = CARTESIAN_POINT ( 'NONE',  ( 0.000000000000000000, 0.000000000000000000, 182.9499999999999886 ) ) ;
#333 = SURFACE_STYLE_USAGE ( .BOTH. , #92 ) ;
#334 = ORIENTED_EDGE ( 'NONE', *, *, #213, .T. ) ;
#335 = VECTOR ( 'NONE', #348, 1000.000000000000000 ) ;
#336 = CARTESIAN_POINT ( 'NONE',  ( -5.999999999999944933, 0.000000000000000000, 182.9499999999999886 ) ) ;
#337 = MANIFOLD_SOLID_BREP ( 'Enlèv. mat.-Extru.1', #294 ) ;
#338 = ORIENTED_EDGE ( 'NONE', *, *, #352, .T. ) ;
#339 = DIRECTION ( 'NONE',  ( 1.000000000000000000, -0.000000000000000000, -0.000000000000000000 ) ) ;
#340 = VERTEX_POINT ( 'NONE', #168 ) ;
#341 = CARTESIAN_POINT ( 'NONE',  ( 3.000000000000000000, 3.673940397442059868E-16, 190.0000000000000000 ) ) ;
#342 = VECTOR ( 'NONE', #77, 1000.000000000000000 ) ;
#343 = AXIS2_PLACEMENT_3D ( 'NONE', #225, #344, #72 ) ;
#344 = DIRECTION ( 'NONE',  ( 0.000000000000000000, 1.000000000000000000, 0.000000000000000000 ) ) ;
#345 = EDGE_CURVE ( 'NONE', #249, #151, #125, .T. ) ;
#346 = EDGE_LOOP ( 'NONE', ( #60, #188, #308, #283 ) ) ;
#347 = PLANE ( 'NONE',  #124 ) ;
#348 = DIRECTION ( 'NONE',  ( -0.000000000000000000, -0.000000000000000000, -1.000000000000000000 ) ) ;
#349 = PRODUCT_DEFINITION_FORMATION_WITH_SPECIFIED_SOURCE ( 'ANY', '', #37, .NOT_KNOWN. ) ;
#350 = AXIS2_PLACEMENT_3D ( 'NONE', #163, #280, #166 ) ;
#351 = DIRECTION ( 'NONE',  ( 0.000000000000000000, 0.000000000000000000, 1.000000000000000000 ) ) ;
#352 = EDGE_CURVE ( 'NONE', #38, #218, #137, .T. ) ;
#353 = DIRECTION ( 'NONE',  ( -1.000000000000000000, 0.000000000000000000, -0.000000000000000000 ) ) ;
#354 = AXIS2_PLACEMENT_3D ( 'NONE', #68, #8, #134 ) ;
#355 = DIRECTION ( 'NONE',  ( 1.000000000000000000, 0.000000000000000000, 0.000000000000000000 ) ) ;
#356 = ORIENTED_EDGE ( 'NONE', *, *, #213, .F. ) ;
#357 = DIRECTION ( 'NONE',  ( -0.000000000000000000, -0.000000000000000000, -1.000000000000000000 ) ) ;
#358 = ORIENTED_EDGE ( 'NONE', *, *, #146, .F. ) ;
#359 = DIRECTION ( 'NONE',  ( 0.000000000000000000, -0.000000000000000000, 1.000000000000000000 ) ) ;
#360 = EDGE_CURVE ( 'NONE', #33, #218, #263, .T. ) ;
#361 = ORIENTED_EDGE ( 'NONE', *, *, #19, .F. ) ;
#362 = CARTESIAN_POINT ( 'NONE',  ( 0.000000000000000000, 0.000000000000000000, 190.0000000000000000 ) ) ;
#363 = ORIENTED_EDGE ( 'NONE', *, *, #373, .F. ) ;
#364 = SURFACE_STYLE_FILL_AREA ( #245 ) ;
#365 = ORIENTED_EDGE ( 'NONE', *, *, #169, .F. ) ;
#366 = DIRECTION ( 'NONE',  ( 1.000000000000000000, 0.000000000000000000, 0.000000000000000000 ) ) ;
#367 = ORIENTED_EDGE ( 'NONE', *, *, #232, .F. ) ;
#368 = AXIS2_PLACEMENT_3D ( 'NONE', #173, #112, #261 ) ;
#369 = LINE ( 'NONE', #336, #81 ) ;
#370 = ORIENTED_EDGE ( 'NONE', *, *, #360, .T. ) ;
#371 = CYLINDRICAL_SURFACE ( 'NONE', #115, 3.000000000000000000 ) ;
#372 = LINE ( 'NONE', #101, #251 ) ;
#373 = EDGE_CURVE ( 'NONE', #4, #252, #75, .T. ) ;
#374 = PLANE ( 'NONE',  #343 ) ;
#375 =( LENGTH_UNIT ( ) NAMED_UNIT ( * ) SI_UNIT ( .MILLI., .METRE. ) );
#376 = CIRCLE ( 'NONE', #206, 3.000000000000000000 ) ;
#377 = ORIENTED_EDGE ( 'NONE', *, *, #311, .F. ) ;
#378 =( NAMED_UNIT ( * ) SI_UNIT ( $, .STERADIAN. ) SOLID_ANGLE_UNIT ( ) );
#379 = DIRECTION ( 'NONE',  ( 1.000000000000000000, 0.000000000000000000, 0.000000000000000000 ) ) ;
#380 = EDGE_CURVE ( 'NONE', #4, #272, #285, .T. ) ;
#381 = LINE ( 'NONE', #326, #325 ) ;
#382 = LINE ( 'NONE', #229, #172 ) ;
#383 = VECTOR ( 'NONE', #67, 1000.000000000000000 ) ;
#384 = CARTESIAN_POINT ( 'NONE',  ( 4.000000000000000000, 4.898587196589412829E-16, 190.0000000000000000 ) ) ;
#385 = ORIENTED_EDGE ( 'NONE', *, *, #91, .T. ) ;
#386 = CARTESIAN_POINT ( 'NONE',  ( 4.000000000000000000, 4.898587196589412829E-16, 190.0000000000000000 ) ) ;
#387 = FACE_OUTER_BOUND ( 'NONE', #90, .T. ) ;
#388 = ORIENTED_EDGE ( 'NONE', *, *, #232, .T. ) ;
#389 = FACE_OUTER_BOUND ( 'NONE', #300, .T. ) ;
#390 = EDGE_LOOP ( 'NONE', ( #2, #276 ) ) ;
#391 = CIRCLE ( 'NONE', #106, 4.000000000000000000 ) ;
#392 = DIRECTION ( 'NONE',  ( -1.000000000000000000, 0.000000000000000000, 0.000000000000000000 ) ) ;
#393 = EDGE_CURVE ( 'NONE', #249, #246, #382, .T. ) ;
#394 = ORIENTED_EDGE ( 'NONE', *, *, #352, .F. ) ;
ENDSEC;
END-ISO-10303-21;
