ISO-10303-21;
HEADER;
FILE_DESCRIPTION (( 'STEP AP203' ),
    '1' );
FILE_NAME ('Pièce 1 step.STEP',
    '2022-12-28T09:29:40',
    ( '' ),
    ( '' ),
    'SwSTEP 2.0',
    'SolidWorks 2014',
    '' );
FILE_SCHEMA (( 'CONFIG_CONTROL_DESIGN' ));
ENDSEC;

DATA;
#1 = ORIENTED_EDGE ( 'NONE', *, *, #2, .T. ) ;
#2 = EDGE_CURVE ( 'NONE', #127, #96, #61, .T. ) ;
#3 = FACE_OUTER_BOUND ( 'NONE', #158, .T. ) ;
#4 = CIRCLE ( 'NONE', #174, 5.499999999999987600 ) ;
#5 = PRODUCT_DEFINITION_FORMATION_WITH_SPECIFIED_SOURCE ( 'ANY', '', #81, .NOT_KNOWN. ) ;
#6 = ADVANCED_BREP_SHAPE_REPRESENTATION ( 'PiÞce 1 step', ( #147, #167 ), #50 ) ;
#7 = AXIS2_PLACEMENT_3D ( 'NONE', #245, #114, #224 ) ;
#8 = ORIENTED_EDGE ( 'NONE', *, *, #122, .T. ) ;
#9 = PRODUCT_DEFINITION_SHAPE ( 'NONE', 'NONE',  #199 ) ;
#10 = CARTESIAN_POINT ( 'NONE',  ( 0.0000000000000000000, 0.0000000000000000000, 5.500000000000000000 ) ) ;
#11 = EDGE_CURVE ( 'NONE', #209, #87, #4, .T. ) ;
#12 = DIRECTION ( 'NONE',  ( 1.000000000000000000, 0.0000000000000000000, 0.0000000000000000000 ) ) ;
#13 = DATE_AND_TIME ( #121, #68 ) ;
#14 = DIRECTION ( 'NONE',  ( 0.0000000000000000000, 0.0000000000000000000, 1.000000000000000000 ) ) ;
#15 = ORIENTED_EDGE ( 'NONE', *, *, #107, .F. ) ;
#16 = CARTESIAN_POINT ( 'NONE',  ( 0.0000000000000000000, 0.0000000000000000000, 5.500000000000000000 ) ) ;
#17 = APPROVAL_ROLE ( '' ) ;
#18 = APPROVAL ( #120, 'UNSPECIFIED' ) ;
#19 = APPROVAL_PERSON_ORGANIZATION ( #218, #111, #157 ) ;
#20 = ORIENTED_EDGE ( 'NONE', *, *, #148, .F. ) ;
#21 = AXIS2_PLACEMENT_3D ( 'NONE', #194, #56, #171 ) ;
#22 = PERSON_AND_ORGANIZATION ( #65, #100 ) ;
#23 = EDGE_CURVE ( 'NONE', #70, #209, #109, .T. ) ;
#24 = EDGE_LOOP ( 'NONE', ( #195, #207, #186, #20 ) ) ;
#25 = LOCAL_TIME ( 10, 29, 40.00000000000000000, #84 ) ;
#26 = DIRECTION ( 'NONE',  ( -0.0000000000000000000, -0.0000000000000000000, -1.000000000000000000 ) ) ;
#27 = CC_DESIGN_APPROVAL ( #18, ( #5 ) ) ;
#28 = DIRECTION ( 'NONE',  ( 0.0000000000000000000, 0.0000000000000000000, 1.000000000000000000 ) ) ;
#29 = CARTESIAN_POINT ( 'NONE',  ( 5.499999999999920100, 0.0000000000000000000, 5.500000000000000000 ) ) ;
#30 = CALENDAR_DATE ( 2022, 28, 12 ) ;
#31 = CARTESIAN_POINT ( 'NONE',  ( 0.0000000000000000000, 0.0000000000000000000, 0.0000000000000000000 ) ) ;
#32 = DIRECTION ( 'NONE',  ( 0.0000000000000000000, 0.0000000000000000000, 1.000000000000000000 ) ) ;
#33 = ORIENTED_EDGE ( 'NONE', *, *, #134, .F. ) ;
#34 = CARTESIAN_POINT ( 'NONE',  ( -10.00000000000000000, 0.0000000000000000000, 5.500000000000000000 ) ) ;
#35 = AXIS2_PLACEMENT_3D ( 'NONE', #130, #243, #113 ) ;
#36 = DIRECTION ( 'NONE',  ( 0.0000000000000000000, 0.0000000000000000000, 1.000000000000000000 ) ) ;
#37 = CALENDAR_DATE ( 2022, 28, 12 ) ;
#38 = APPLICATION_PROTOCOL_DEFINITION ( 'international standard', 'config_control_design', 1994, #179 ) ;
#39 = LINE ( 'NONE', #117, #51 ) ;
#40 = LINE ( 'NONE', #29, #204 ) ;
#41 = ORIENTED_EDGE ( 'NONE', *, *, #107, .T. ) ;
#42 = EDGE_CURVE ( 'NONE', #70, #118, #162, .T. ) ;
#43 = PERSON_AND_ORGANIZATION ( #65, #100 ) ;
#44 = VECTOR ( 'NONE', #116, 1000.000000000000000 ) ;
#45 = CC_DESIGN_PERSON_AND_ORGANIZATION_ASSIGNMENT ( #131, #101, ( #5 ) ) ;
#46 = ADVANCED_FACE ( 'NONE', ( #150, #3 ), #163, .T. ) ;
#47 = ORIENTED_EDGE ( 'NONE', *, *, #57, .T. ) ;
#48 = ADVANCED_FACE ( 'NONE', ( #203 ), #91, .T. ) ;
#49 = CARTESIAN_POINT ( 'NONE',  ( 0.0000000000000000000, 0.0000000000000000000, 5.500000000000000000 ) ) ;
#50 =( GEOMETRIC_REPRESENTATION_CONTEXT ( 3 ) GLOBAL_UNCERTAINTY_ASSIGNED_CONTEXT ( ( #58 ) ) GLOBAL_UNIT_ASSIGNED_CONTEXT ( ( #169, #241, #110 ) ) REPRESENTATION_CONTEXT ( 'NONE', 'WORKASPACE' ) );
#51 = VECTOR ( 'NONE', #247, 1000.000000000000000 ) ;
#52 = MECHANICAL_CONTEXT ( 'NONE', #71, 'mechanical' ) ;
#53 = CARTESIAN_POINT ( 'NONE',  ( 0.0000000000000000000, 0.0000000000000000000, 0.0000000000000000000 ) ) ;
#54 = DIRECTION ( 'NONE',  ( 0.0000000000000000000, 0.0000000000000000000, 1.000000000000000000 ) ) ;
#55 = ORIENTED_EDGE ( 'NONE', *, *, #42, .T. ) ;
#56 = DIRECTION ( 'NONE',  ( -0.0000000000000000000, -0.0000000000000000000, 1.000000000000000000 ) ) ;
#57 = EDGE_CURVE ( 'NONE', #127, #145, #39, .T. ) ;
#58 = UNCERTAINTY_MEASURE_WITH_UNIT (LENGTH_MEASURE( 1.000000000000000100E-005 ), #169, 'distance_accuracy_value', 'NONE');
#59 = CARTESIAN_POINT ( 'NONE',  ( 5.499999999999987600, 0.0000000000000000000, 5.500000000000000900 ) ) ;
#60 = DIRECTION ( 'NONE',  ( -0.0000000000000000000, -0.0000000000000000000, 1.000000000000000000 ) ) ;
#61 = CIRCLE ( 'NONE', #161, 10.00000000000000000 ) ;
#62 = DATE_TIME_ROLE ( 'classification_date' ) ;
#63 = CC_DESIGN_PERSON_AND_ORGANIZATION_ASSIGNMENT ( #22, #214, ( #5 ) ) ;
#64 = ORIENTED_EDGE ( 'NONE', *, *, #134, .T. ) ;
#65 = PERSON ( 'UNSPECIFIED', 'UNSPECIFIED', 'UNSPECIFIED', ('UNSPECIFIED'), ('UNSPECIFIED'), ('UNSPECIFIED') ) ;
#66 = ORIENTED_EDGE ( 'NONE', *, *, #2, .F. ) ;
#67 = DIRECTION ( 'NONE',  ( 1.000000000000000000, 0.0000000000000000000, 0.0000000000000000000 ) ) ;
#68 = LOCAL_TIME ( 10, 29, 40.00000000000000000, #172 ) ;
#69 = EDGE_CURVE ( 'NONE', #145, #181, #248, .T. ) ;
#70 = VERTEX_POINT ( 'NONE', #99 ) ;
#71 = APPLICATION_CONTEXT ( 'configuration controlled 3d designs of mechanical parts and assemblies' ) ;
#72 = SECURITY_CLASSIFICATION ( '', '', #79 ) ;
#73 = CARTESIAN_POINT ( 'NONE',  ( 0.0000000000000000000, 0.0000000000000000000, 5.500000000000000000 ) ) ;
#74 = PLANE ( 'NONE',  #90 ) ;
#75 = DATE_AND_TIME ( #180, #126 ) ;
#76 = ORIENTED_EDGE ( 'NONE', *, *, #57, .F. ) ;
#77 = AXIS2_PLACEMENT_3D ( 'NONE', #10, #175, #12 ) ;
#78 = DIRECTION ( 'NONE',  ( -1.000000000000000000, 0.0000000000000000000, 0.0000000000000000000 ) ) ;
#79 = SECURITY_CLASSIFICATION_LEVEL ( 'unclassified' ) ;
#80 = PERSON_AND_ORGANIZATION ( #65, #100 ) ;
#81 = PRODUCT ( 'Pièce 1 step', 'Pièce 1 step', '', ( #52 ) ) ;
#82 = EDGE_CURVE ( 'NONE', #96, #181, #239, .T. ) ;
#83 = CLOSED_SHELL ( 'NONE', ( #217, #219, #48, #46, #146, #144 ) ) ;
#84 = COORDINATED_UNIVERSAL_TIME_OFFSET ( 1, 0, .AHEAD. ) ;
#85 = CC_DESIGN_PERSON_AND_ORGANIZATION_ASSIGNMENT ( #80, #198, ( #72 ) ) ;
#86 = COORDINATED_UNIVERSAL_TIME_OFFSET ( 1, 0, .AHEAD. ) ;
#87 = VERTEX_POINT ( 'NONE', #59 ) ;
#88 = CARTESIAN_POINT ( 'NONE',  ( 0.0000000000000000000, 0.0000000000000000000, 5.500000000000000900 ) ) ;
#89 = LOCAL_TIME ( 10, 29, 40.00000000000000000, #141 ) ;
#90 = AXIS2_PLACEMENT_3D ( 'NONE', #31, #54, #170 ) ;
#91 = CYLINDRICAL_SURFACE ( 'NONE', #246, 10.00000000000000000 ) ;
#92 = APPLICATION_PROTOCOL_DEFINITION ( 'international standard', 'config_control_design', 1994, #71 ) ;
#93 = CARTESIAN_POINT ( 'NONE',  ( 0.0000000000000000000, 0.0000000000000000000, 5.500000000000000000 ) ) ;
#94 = FACE_OUTER_BOUND ( 'NONE', #230, .T. ) ;
#95 = CARTESIAN_POINT ( 'NONE',  ( 10.00000000000000000, 1.224646799147353300E-015, 0.0000000000000000000 ) ) ;
#96 = VERTEX_POINT ( 'NONE', #98 ) ;
#97 = EDGE_CURVE ( 'NONE', #96, #127, #142, .T. ) ;
#98 = CARTESIAN_POINT ( 'NONE',  ( -10.00000000000000000, 0.0000000000000000000, 5.500000000000000000 ) ) ;
#99 = CARTESIAN_POINT ( 'NONE',  ( -5.499999999999852600, 6.735557395310304000E-016, -6.071532165918824800E-014 ) ) ;
#100 = ORGANIZATION ( 'UNSPECIFIED', 'UNSPECIFIED', '' ) ;
#101 = PERSON_AND_ORGANIZATION_ROLE ( 'creator' ) ;
#102 = VECTOR ( 'NONE', #106, 1000.000000000000000 ) ;
#103 = CC_DESIGN_DATE_AND_TIME_ASSIGNMENT ( #75, #62, ( #72 ) ) ;
#104 = ORIENTED_EDGE ( 'NONE', *, *, #82, .T. ) ;
#105 = CIRCLE ( 'NONE', #21, 5.499999999999987600 ) ;
#106 = DIRECTION ( 'NONE',  ( -0.0000000000000000000, -0.0000000000000000000, 1.000000000000000000 ) ) ;
#107 = EDGE_CURVE ( 'NONE', #181, #145, #233, .T. ) ;
#108 = CYLINDRICAL_SURFACE ( 'NONE', #128, 10.00000000000000000 ) ;
#109 = LINE ( 'NONE', #165, #102 ) ;
#110 =( NAMED_UNIT ( * ) SI_UNIT ( $, .STERADIAN. ) SOLID_ANGLE_UNIT ( ) );
#111 = APPROVAL ( #178, 'UNSPECIFIED' ) ;
#112 = DIRECTION ( 'NONE',  ( -1.000000000000000000, 0.0000000000000000000, 0.0000000000000000000 ) ) ;
#113 = DIRECTION ( 'NONE',  ( 1.000000000000000000, 0.0000000000000000000, 0.0000000000000000000 ) ) ;
#114 = DIRECTION ( 'NONE',  ( 0.0000000000000000000, 0.0000000000000000000, 1.000000000000000000 ) ) ;
#115 = FACE_OUTER_BOUND ( 'NONE', #220, .T. ) ;
#116 = DIRECTION ( 'NONE',  ( -0.0000000000000000000, -0.0000000000000000000, -1.000000000000000000 ) ) ;
#117 = CARTESIAN_POINT ( 'NONE',  ( 10.00000000000000000, 1.224646799147353300E-015, 5.500000000000000000 ) ) ;
#118 = VERTEX_POINT ( 'NONE', #210 ) ;
#119 = AXIS2_PLACEMENT_3D ( 'NONE', #93, #242, #152 ) ;
#120 = APPROVAL_STATUS ( 'not_yet_approved' ) ;
#121 = CALENDAR_DATE ( 2022, 28, 12 ) ;
#122 = EDGE_CURVE ( 'NONE', #87, #209, #105, .T. ) ;
#123 = ORIENTED_EDGE ( 'NONE', *, *, #23, .F. ) ;
#124 = DESIGN_CONTEXT ( 'detailed design', #179, 'design' ) ;
#125 = CC_DESIGN_APPROVAL ( #111, ( #72 ) ) ;
#126 = LOCAL_TIME ( 10, 29, 40.00000000000000000, #223 ) ;
#127 = VERTEX_POINT ( 'NONE', #132 ) ;
#128 = AXIS2_PLACEMENT_3D ( 'NONE', #73, #190, #112 ) ;
#129 = CARTESIAN_POINT ( 'NONE',  ( -10.00000000000000000, 0.0000000000000000000, 0.0000000000000000000 ) ) ;
#130 = CARTESIAN_POINT ( 'NONE',  ( 0.0000000000000000000, 0.0000000000000000000, -6.071532165918824800E-014 ) ) ;
#131 = PERSON_AND_ORGANIZATION ( #65, #100 ) ;
#132 = CARTESIAN_POINT ( 'NONE',  ( 10.00000000000000000, 1.224646799147353300E-015, 5.500000000000000000 ) ) ;
#133 = ORIENTED_EDGE ( 'NONE', *, *, #11, .F. ) ;
#134 = EDGE_CURVE ( 'NONE', #118, #70, #200, .T. ) ;
#135 = DIRECTION ( 'NONE',  ( 1.000000000000000000, 0.0000000000000000000, 0.0000000000000000000 ) ) ;
#136 = PERSON_AND_ORGANIZATION ( #65, #100 ) ;
#137 = PERSON_AND_ORGANIZATION_ROLE ( 'creator' ) ;
#138 = CC_DESIGN_SECURITY_CLASSIFICATION ( #72, ( #5 ) ) ;
#139 = LOCAL_TIME ( 10, 29, 40.00000000000000000, #86 ) ;
#140 = ORIENTED_EDGE ( 'NONE', *, *, #97, .T. ) ;
#141 = COORDINATED_UNIVERSAL_TIME_OFFSET ( 1, 0, .AHEAD. ) ;
#142 = CIRCLE ( 'NONE', #212, 10.00000000000000000 ) ;
#143 = FACE_OUTER_BOUND ( 'NONE', #24, .T. ) ;
#144 = ADVANCED_FACE ( 'NONE', ( #183 ), #234, .F. ) ;
#145 = VERTEX_POINT ( 'NONE', #95 ) ;
#146 = ADVANCED_FACE ( 'NONE', ( #192, #94 ), #74, .F. ) ;
#147 = MANIFOLD_SOLID_BREP ( 'Dégagement M101', #83 ) ;
#148 = EDGE_CURVE ( 'NONE', #118, #87, #40, .T. ) ;
#149 = SHAPE_DEFINITION_REPRESENTATION ( #9, #6 ) ;
#150 = FACE_BOUND ( 'NONE', #236, .T. ) ;
#151 = PRODUCT_RELATED_PRODUCT_CATEGORY ( 'detail', '', ( #81 ) ) ;
#152 = DIRECTION ( 'NONE',  ( 1.000000000000000000, 0.0000000000000000000, 0.0000000000000000000 ) ) ;
#153 = ORIENTED_EDGE ( 'NONE', *, *, #148, .T. ) ;
#154 = DIRECTION ( 'NONE',  ( 1.000000000000000000, 0.0000000000000000000, 0.0000000000000000000 ) ) ;
#155 = CARTESIAN_POINT ( 'NONE',  ( 0.0000000000000000000, 0.0000000000000000000, 0.0000000000000000000 ) ) ;
#156 = DIRECTION ( 'NONE',  ( 1.000000000000000000, 0.0000000000000000000, -0.0000000000000000000 ) ) ;
#157 = APPROVAL_ROLE ( '' ) ;
#158 = EDGE_LOOP ( 'NONE', ( #140, #1 ) ) ;
#159 = APPROVAL_STATUS ( 'not_yet_approved' ) ;
#160 = EDGE_LOOP ( 'NONE', ( #64, #55 ) ) ;
#161 = AXIS2_PLACEMENT_3D ( 'NONE', #49, #206, #237 ) ;
#162 = CIRCLE ( 'NONE', #187, 5.499999999999852600 ) ;
#163 = PLANE ( 'NONE',  #221 ) ;
#164 = APPROVAL_DATE_TIME ( #13, #111 ) ;
#165 = CARTESIAN_POINT ( 'NONE',  ( -5.499999999999920100, 6.735557395310345400E-016, 5.500000000000000000 ) ) ;
#166 = EDGE_LOOP ( 'NONE', ( #76, #215, #104, #41 ) ) ;
#167 = AXIS2_PLACEMENT_3D ( 'NONE', #53, #28, #189 ) ;
#168 = PERSON_AND_ORGANIZATION_ROLE ( 'design_owner' ) ;
#169 =( LENGTH_UNIT ( ) NAMED_UNIT ( * ) SI_UNIT ( .MILLI., .METRE. ) );
#170 = DIRECTION ( 'NONE',  ( 1.000000000000000000, 0.0000000000000000000, -0.0000000000000000000 ) ) ;
#171 = DIRECTION ( 'NONE',  ( 1.000000000000000000, 0.0000000000000000000, 0.0000000000000000000 ) ) ;
#172 = COORDINATED_UNIVERSAL_TIME_OFFSET ( 1, 0, .AHEAD. ) ;
#173 = CARTESIAN_POINT ( 'NONE',  ( 0.0000000000000000000, 0.0000000000000000000, 5.500000000000000000 ) ) ;
#174 = AXIS2_PLACEMENT_3D ( 'NONE', #88, #205, #67 ) ;
#175 = DIRECTION ( 'NONE',  ( -0.0000000000000000000, -0.0000000000000000000, 1.000000000000000000 ) ) ;
#176 = EDGE_LOOP ( 'NONE', ( #123, #33, #153, #8 ) ) ;
#177 = DIRECTION ( 'NONE',  ( 1.000000000000000000, 0.0000000000000000000, 0.0000000000000000000 ) ) ;
#178 = APPROVAL_STATUS ( 'not_yet_approved' ) ;
#179 = APPLICATION_CONTEXT ( 'configuration controlled 3d designs of mechanical parts and assemblies' ) ;
#180 = CALENDAR_DATE ( 2022, 28, 12 ) ;
#181 = VERTEX_POINT ( 'NONE', #129 ) ;
#182 = CC_DESIGN_PERSON_AND_ORGANIZATION_ASSIGNMENT ( #43, #168, ( #81 ) ) ;
#183 = FACE_OUTER_BOUND ( 'NONE', #176, .T. ) ;
#184 = DATE_AND_TIME ( #30, #139 ) ;
#185 = CARTESIAN_POINT ( 'NONE',  ( 0.0000000000000000000, 0.0000000000000000000, 5.500000000000000000 ) ) ;
#186 = ORIENTED_EDGE ( 'NONE', *, *, #11, .T. ) ;
#187 = AXIS2_PLACEMENT_3D ( 'NONE', #197, #60, #177 ) ;
#188 = APPROVAL_DATE_TIME ( #232, #208 ) ;
#189 = DIRECTION ( 'NONE',  ( 1.000000000000000000, 0.0000000000000000000, 0.0000000000000000000 ) ) ;
#190 = DIRECTION ( 'NONE',  ( -0.0000000000000000000, -0.0000000000000000000, -1.000000000000000000 ) ) ;
#191 = DIRECTION ( 'NONE',  ( -0.0000000000000000000, -0.0000000000000000000, 1.000000000000000000 ) ) ;
#192 = FACE_BOUND ( 'NONE', #160, .T. ) ;
#193 = APPROVAL_PERSON_ORGANIZATION ( #201, #18, #227 ) ;
#194 = CARTESIAN_POINT ( 'NONE',  ( 0.0000000000000000000, 0.0000000000000000000, 5.500000000000000900 ) ) ;
#195 = ORIENTED_EDGE ( 'NONE', *, *, #42, .F. ) ;
#196 = APPROVAL_PERSON_ORGANIZATION ( #238, #208, #17 ) ;
#197 = CARTESIAN_POINT ( 'NONE',  ( 0.0000000000000000000, 0.0000000000000000000, -6.071532165918824800E-014 ) ) ;
#198 = PERSON_AND_ORGANIZATION_ROLE ( 'classification_officer' ) ;
#199 = PRODUCT_DEFINITION ( 'UNKNOWN', '', #5, #124 ) ;
#200 = CIRCLE ( 'NONE', #35, 5.499999999999852600 ) ;
#201 = PERSON_AND_ORGANIZATION ( #65, #100 ) ;
#202 = ORIENTED_EDGE ( 'NONE', *, *, #69, .T. ) ;
#203 = FACE_OUTER_BOUND ( 'NONE', #166, .T. ) ;
#204 = VECTOR ( 'NONE', #191, 1000.000000000000000 ) ;
#205 = DIRECTION ( 'NONE',  ( -0.0000000000000000000, -0.0000000000000000000, 1.000000000000000000 ) ) ;
#206 = DIRECTION ( 'NONE',  ( 0.0000000000000000000, 0.0000000000000000000, 1.000000000000000000 ) ) ;
#207 = ORIENTED_EDGE ( 'NONE', *, *, #23, .T. ) ;
#208 = APPROVAL ( #159, 'UNSPECIFIED' ) ;
#209 = VERTEX_POINT ( 'NONE', #222 ) ;
#210 = CARTESIAN_POINT ( 'NONE',  ( 5.499999999999852600, 0.0000000000000000000, -6.071532165918824800E-014 ) ) ;
#211 = CYLINDRICAL_SURFACE ( 'NONE', #119, 5.499999999999920100 ) ;
#212 = AXIS2_PLACEMENT_3D ( 'NONE', #173, #32, #154 ) ;
#213 = ORIENTED_EDGE ( 'NONE', *, *, #122, .F. ) ;
#214 = PERSON_AND_ORGANIZATION_ROLE ( 'design_supplier' ) ;
#215 = ORIENTED_EDGE ( 'NONE', *, *, #97, .F. ) ;
#216 = CC_DESIGN_APPROVAL ( #208, ( #199 ) ) ;
#217 = ADVANCED_FACE ( 'NONE', ( #143 ), #211, .F. ) ;
#218 = PERSON_AND_ORGANIZATION ( #65, #100 ) ;
#219 = ADVANCED_FACE ( 'NONE', ( #115 ), #108, .T. ) ;
#220 = EDGE_LOOP ( 'NONE', ( #66, #47, #202, #225 ) ) ;
#221 = AXIS2_PLACEMENT_3D ( 'NONE', #185, #36, #156 ) ;
#222 = CARTESIAN_POINT ( 'NONE',  ( -5.499999999999986700, 6.735557395310427200E-016, 5.500000000000000900 ) ) ;
#223 = COORDINATED_UNIVERSAL_TIME_OFFSET ( 1, 0, .AHEAD. ) ;
#224 = DIRECTION ( 'NONE',  ( 1.000000000000000000, 0.0000000000000000000, 0.0000000000000000000 ) ) ;
#225 = ORIENTED_EDGE ( 'NONE', *, *, #82, .F. ) ;
#226 = CALENDAR_DATE ( 2022, 28, 12 ) ;
#227 = APPROVAL_ROLE ( '' ) ;
#228 = CC_DESIGN_PERSON_AND_ORGANIZATION_ASSIGNMENT ( #136, #137, ( #199 ) ) ;
#229 = APPROVAL_DATE_TIME ( #184, #18 ) ;
#230 = EDGE_LOOP ( 'NONE', ( #15, #244 ) ) ;
#231 = AXIS2_PLACEMENT_3D ( 'NONE', #155, #14, #135 ) ;
#232 = DATE_AND_TIME ( #37, #89 ) ;
#233 = CIRCLE ( 'NONE', #7, 10.00000000000000000 ) ;
#234 = CYLINDRICAL_SURFACE ( 'NONE', #77, 5.499999999999920100 ) ;
#235 = DATE_AND_TIME ( #226, #25 ) ;
#236 = EDGE_LOOP ( 'NONE', ( #213, #133 ) ) ;
#237 = DIRECTION ( 'NONE',  ( 1.000000000000000000, 0.0000000000000000000, 0.0000000000000000000 ) ) ;
#238 = PERSON_AND_ORGANIZATION ( #65, #100 ) ;
#239 = LINE ( 'NONE', #34, #44 ) ;
#240 = CC_DESIGN_DATE_AND_TIME_ASSIGNMENT ( #235, #249, ( #199 ) ) ;
#241 =( NAMED_UNIT ( * ) PLANE_ANGLE_UNIT ( ) SI_UNIT ( $, .RADIAN. ) );
#242 = DIRECTION ( 'NONE',  ( -0.0000000000000000000, -0.0000000000000000000, 1.000000000000000000 ) ) ;
#243 = DIRECTION ( 'NONE',  ( -0.0000000000000000000, -0.0000000000000000000, 1.000000000000000000 ) ) ;
#244 = ORIENTED_EDGE ( 'NONE', *, *, #69, .F. ) ;
#245 = CARTESIAN_POINT ( 'NONE',  ( 0.0000000000000000000, 0.0000000000000000000, 0.0000000000000000000 ) ) ;
#246 = AXIS2_PLACEMENT_3D ( 'NONE', #16, #26, #78 ) ;
#247 = DIRECTION ( 'NONE',  ( -0.0000000000000000000, -0.0000000000000000000, -1.000000000000000000 ) ) ;
#248 = CIRCLE ( 'NONE', #231, 10.00000000000000000 ) ;
#249 = DATE_TIME_ROLE ( 'creation_date' ) ;
ENDSEC;
END-ISO-10303-21;
