ISO-10303-21;
HEADER;
FILE_DESCRIPTION(('CATIA V5 STEP Exchange'),'2;1');

FILE_NAME('C:\\Users\\Utilisateur\\OneDrive\\Documents\\LTM 1530\\3D\\Transmis\\STEP\\Entretoise jante.stp','2022-08-01T21:22:27+00:00',('none'),('none'),'CATIA Version 5 Release 19 GA (IN-10)','CATIA V5 STEP AP203','none');

FILE_SCHEMA(('CONFIG_CONTROL_DESIGN'));

ENDSEC;
/* file written by CATIA V5R19 */
DATA;
#5=PRODUCT('Entretoise jante','','',(#2)) ;
#1=APPLICATION_CONTEXT('configuration controlled 3D design of mechanical parts and assemblies') ;
#14=PRODUCT_DEFINITION('',' ',#6,#3) ;
#16=SECURITY_CLASSIFICATION(' ',' ',#15) ;
#15=SECURITY_CLASSIFICATION_LEVEL('unclassified') ;
#47=CARTESIAN_POINT(' ',(0.,0.,0.)) ;
#52=CARTESIAN_POINT('Axis2P3D Location',(0.,0.,0.)) ;
#57=CARTESIAN_POINT('Line Origine',(27.,0.,0.)) ;
#61=CARTESIAN_POINT('Vertex',(27.,0.,-13.)) ;
#63=CARTESIAN_POINT('Vertex',(27.,0.,13.)) ;
#66=CARTESIAN_POINT('Axis2P3D Location',(0.,0.,-13.)) ;
#70=CARTESIAN_POINT('Vertex',(-27.,3.30643715532E-015,-13.)) ;
#73=CARTESIAN_POINT('Line Origine',(-27.,1.52968458213E-014,0.)) ;
#77=CARTESIAN_POINT('Vertex',(-27.,3.30643715532E-015,13.)) ;
#80=CARTESIAN_POINT('Axis2P3D Location',(0.,0.,13.)) ;
#92=CARTESIAN_POINT('Axis2P3D Location',(0.,0.,-13.)) ;
#97=CARTESIAN_POINT('Axis2P3D Location',(0.,0.,13.)) ;
#109=CARTESIAN_POINT('Axis2P3D Location',(0.,0.,-13.)) ;
#118=CARTESIAN_POINT('Axis2P3D Location',(-6.93889390391E-016,1.7763568394E-015,-13.)) ;
#122=CARTESIAN_POINT('Vertex',(24.5,-4.72561714152E-015,-13.)) ;
#124=CARTESIAN_POINT('Vertex',(-24.5,1.67346399296E-007,-13.)) ;
#127=CARTESIAN_POINT('Axis2P3D Location',(-7.1054273576E-015,1.27495399221E-015,-13.)) ;
#137=CARTESIAN_POINT('Axis2P3D Location',(8.70414851306E-014,-3.44613226844E-013,11.5)) ;
#142=CARTESIAN_POINT('Line Origine',(24.25,3.58972111295E-015,-12.75)) ;
#146=CARTESIAN_POINT('Vertex',(24.,-5.87811049835E-015,-12.5)) ;
#149=CARTESIAN_POINT('Axis2P3D Location',(1.7763568394E-015,-3.5527136788E-015,-12.5)) ;
#153=CARTESIAN_POINT('Vertex',(-24.,2.93905524917E-015,-12.5)) ;
#156=CARTESIAN_POINT('Line Origine',(-24.25,5.03267260056E-015,-12.75)) ;
#168=CARTESIAN_POINT('Axis2P3D Location',(1.72306613422E-013,4.35207425653E-014,11.5)) ;
#173=CARTESIAN_POINT('Axis2P3D Location',(1.7763568394E-015,8.881784197E-016,-12.5)) ;
#185=CARTESIAN_POINT('Axis2P3D Location',(0.,0.,13.)) ;
#194=CARTESIAN_POINT('Axis2P3D Location',(-7.1054273576E-015,2.9016909318E-015,13.)) ;
#198=CARTESIAN_POINT('Vertex',(-24.5,3.91890716571E-008,13.)) ;
#200=CARTESIAN_POINT('Vertex',(24.5,-3.09888020193E-015,13.)) ;
#203=CARTESIAN_POINT('Axis2P3D Location',(-6.77236045021E-015,0.,13.)) ;
#213=CARTESIAN_POINT('Axis2P3D Location',(0.,0.,0.)) ;
#218=CARTESIAN_POINT('Axis2P3D Location',(0.,0.,12.5)) ;
#222=CARTESIAN_POINT('Vertex',(-24.,2.93905524917E-015,12.5)) ;
#224=CARTESIAN_POINT('Vertex',(24.,-5.87811049835E-015,12.5)) ;
#227=CARTESIAN_POINT('Line Origine',(24.,-5.87811049835E-015,0.)) ;
#232=CARTESIAN_POINT('Line Origine',(-24.,2.93905524917E-015,0.)) ;
#244=CARTESIAN_POINT('Axis2P3D Location',(0.,0.,12.5)) ;
#256=CARTESIAN_POINT('Axis2P3D Location',(1.74082970261E-013,-8.881784197E-014,-11.5)) ;
#261=CARTESIAN_POINT('Line Origine',(24.25,5.48013307068E-016,12.75)) ;
#266=CARTESIAN_POINT('Line Origine',(-24.25,3.87891772938E-008,12.75)) ;
#278=CARTESIAN_POINT('Axis2P3D Location',(1.70530256582E-013,-3.5527136788E-015,-11.5)) ;
#53=DIRECTION('Axis2P3D Direction',(0.,0.,1.)) ;
#54=DIRECTION('Axis2P3D XDirection',(1.,0.,0.)) ;
#58=DIRECTION('Vector Direction',(0.,0.,1.)) ;
#67=DIRECTION('Axis2P3D Direction',(0.,0.,1.)) ;
#74=DIRECTION('Vector Direction',(0.,0.,1.)) ;
#81=DIRECTION('Axis2P3D Direction',(0.,0.,1.)) ;
#93=DIRECTION('Axis2P3D Direction',(0.,0.,1.)) ;
#98=DIRECTION('Axis2P3D Direction',(0.,0.,1.)) ;
#110=DIRECTION('Axis2P3D Direction',(0.,0.,1.)) ;
#111=DIRECTION('Axis2P3D XDirection',(1.,0.,0.)) ;
#119=DIRECTION('Axis2P3D Direction',(0.,0.,1.)) ;
#128=DIRECTION('Axis2P3D Direction',(0.,0.,1.)) ;
#138=DIRECTION('Axis2P3D Direction',(-3.5527136788E-015,1.42108547152E-014,-1.)) ;
#139=DIRECTION('Axis2P3D XDirection',(1.,-8.50722553626E-017,-3.55614034311E-015)) ;
#143=DIRECTION('Vector Direction',(0.707106781187,1.01532645662E-014,-0.707106781187)) ;
#150=DIRECTION('Axis2P3D Direction',(-1.20894946125E-030,-1.42108547152E-014,1.)) ;
#157=DIRECTION('Vector Direction',(-0.707106781187,1.01953396499E-014,-0.707106781187)) ;
#169=DIRECTION('Axis2P3D Direction',(-7.1054273576E-015,-1.7763568394E-015,-1.)) ;
#170=DIRECTION('Axis2P3D XDirection',(-0.892688968366,0.450673280502,5.53177386705E-015)) ;
#174=DIRECTION('Axis2P3D Direction',(2.15780582535E-015,4.2741594399E-015,1.)) ;
#186=DIRECTION('Axis2P3D Direction',(0.,0.,1.)) ;
#187=DIRECTION('Axis2P3D XDirection',(1.,0.,0.)) ;
#195=DIRECTION('Axis2P3D Direction',(0.,0.,1.)) ;
#204=DIRECTION('Axis2P3D Direction',(0.,0.,1.)) ;
#214=DIRECTION('Axis2P3D Direction',(0.,0.,1.)) ;
#215=DIRECTION('Axis2P3D XDirection',(1.,0.,0.)) ;
#219=DIRECTION('Axis2P3D Direction',(0.,0.,1.)) ;
#228=DIRECTION('Vector Direction',(0.,0.,1.)) ;
#233=DIRECTION('Vector Direction',(0.,0.,1.)) ;
#245=DIRECTION('Axis2P3D Direction',(0.,0.,1.)) ;
#257=DIRECTION('Axis2P3D Direction',(-7.1054273576E-015,3.5527136788E-015,1.)) ;
#258=DIRECTION('Axis2P3D XDirection',(1.,1.32476229533E-016,7.11228068621E-015)) ;
#262=DIRECTION('Vector Direction',(0.707106781187,2.60582277414E-015,0.707106781187)) ;
#267=DIRECTION('Vector Direction',(-0.707106781187,1.13105785999E-009,0.707106781187)) ;
#279=DIRECTION('Axis2P3D Direction',(-7.1054273576E-015,-0.,1.)) ;
#280=DIRECTION('Axis2P3D XDirection',(-0.960922557259,0.276817338604,-6.84886288302E-015)) ;
#48=AXIS2_PLACEMENT_3D(' ',#47,$,$) ;
#55=AXIS2_PLACEMENT_3D('Cylinder Axis2P3D',#52,#53,#54) ;
#68=AXIS2_PLACEMENT_3D('Circle Axis2P3D',#66,#67,$) ;
#82=AXIS2_PLACEMENT_3D('Circle Axis2P3D',#80,#81,$) ;
#94=AXIS2_PLACEMENT_3D('Circle Axis2P3D',#92,#93,$) ;
#99=AXIS2_PLACEMENT_3D('Circle Axis2P3D',#97,#98,$) ;
#112=AXIS2_PLACEMENT_3D('Plane Axis2P3D',#109,#110,#111) ;
#120=AXIS2_PLACEMENT_3D('Circle Axis2P3D',#118,#119,$) ;
#129=AXIS2_PLACEMENT_3D('Circle Axis2P3D',#127,#128,$) ;
#140=AXIS2_PLACEMENT_3D('Cone Axis2P3D',#137,#138,#139) ;
#151=AXIS2_PLACEMENT_3D('Circle Axis2P3D',#149,#150,$) ;
#171=AXIS2_PLACEMENT_3D('Cone Axis2P3D',#168,#169,#170) ;
#175=AXIS2_PLACEMENT_3D('Circle Axis2P3D',#173,#174,$) ;
#188=AXIS2_PLACEMENT_3D('Plane Axis2P3D',#185,#186,#187) ;
#196=AXIS2_PLACEMENT_3D('Circle Axis2P3D',#194,#195,$) ;
#205=AXIS2_PLACEMENT_3D('Circle Axis2P3D',#203,#204,$) ;
#216=AXIS2_PLACEMENT_3D('Cylinder Axis2P3D',#213,#214,#215) ;
#220=AXIS2_PLACEMENT_3D('Circle Axis2P3D',#218,#219,$) ;
#246=AXIS2_PLACEMENT_3D('Circle Axis2P3D',#244,#245,$) ;
#259=AXIS2_PLACEMENT_3D('Cone Axis2P3D',#256,#257,#258) ;
#281=AXIS2_PLACEMENT_3D('Cone Axis2P3D',#278,#279,#280) ;
#40=PRODUCT_DEFINITION_SHAPE(' ',' ',#14) ;
#31=APPROVAL_PERSON_ORGANIZATION(#25,#21,#19) ;
#25=PERSON_AND_ORGANIZATION(#22,#23) ;
#22=PERSON(' ',' ',' ',$,$,$) ;
#23=ORGANIZATION(' ',' ',' ') ;
#21=APPROVAL(#20,' ') ;
#20=APPROVAL_STATUS('not_yet_approved') ;
#19=APPROVAL_ROLE('APPROVER') ;
#13=DATE_AND_TIME(#11,#12) ;
#12=LOCAL_TIME(23,22,27.,#10) ;
#10=COORDINATED_UNIVERSAL_TIME_OFFSET(0,0,.AHEAD.) ;
#86=ORIENTED_EDGE('',*,*,#65,.F.) ;
#87=ORIENTED_EDGE('',*,*,#72,.T.) ;
#88=ORIENTED_EDGE('',*,*,#79,.T.) ;
#89=ORIENTED_EDGE('',*,*,#84,.F.) ;
#103=ORIENTED_EDGE('',*,*,#79,.F.) ;
#104=ORIENTED_EDGE('',*,*,#96,.T.) ;
#105=ORIENTED_EDGE('',*,*,#65,.T.) ;
#106=ORIENTED_EDGE('',*,*,#101,.F.) ;
#115=ORIENTED_EDGE('',*,*,#96,.F.) ;
#116=ORIENTED_EDGE('',*,*,#72,.F.) ;
#133=ORIENTED_EDGE('',*,*,#126,.T.) ;
#134=ORIENTED_EDGE('',*,*,#131,.T.) ;
#162=ORIENTED_EDGE('',*,*,#148,.T.) ;
#163=ORIENTED_EDGE('',*,*,#155,.T.) ;
#164=ORIENTED_EDGE('',*,*,#160,.F.) ;
#165=ORIENTED_EDGE('',*,*,#126,.F.) ;
#179=ORIENTED_EDGE('',*,*,#160,.T.) ;
#180=ORIENTED_EDGE('',*,*,#177,.T.) ;
#181=ORIENTED_EDGE('',*,*,#148,.F.) ;
#182=ORIENTED_EDGE('',*,*,#131,.F.) ;
#191=ORIENTED_EDGE('',*,*,#84,.T.) ;
#192=ORIENTED_EDGE('',*,*,#101,.T.) ;
#209=ORIENTED_EDGE('',*,*,#202,.F.) ;
#210=ORIENTED_EDGE('',*,*,#207,.F.) ;
#238=ORIENTED_EDGE('',*,*,#226,.T.) ;
#239=ORIENTED_EDGE('',*,*,#231,.F.) ;
#240=ORIENTED_EDGE('',*,*,#177,.F.) ;
#241=ORIENTED_EDGE('',*,*,#236,.T.) ;
#250=ORIENTED_EDGE('',*,*,#248,.T.) ;
#251=ORIENTED_EDGE('',*,*,#236,.F.) ;
#252=ORIENTED_EDGE('',*,*,#155,.F.) ;
#253=ORIENTED_EDGE('',*,*,#231,.T.) ;
#272=ORIENTED_EDGE('',*,*,#265,.T.) ;
#273=ORIENTED_EDGE('',*,*,#207,.T.) ;
#274=ORIENTED_EDGE('',*,*,#270,.F.) ;
#275=ORIENTED_EDGE('',*,*,#248,.F.) ;
#284=ORIENTED_EDGE('',*,*,#270,.T.) ;
#285=ORIENTED_EDGE('',*,*,#202,.T.) ;
#286=ORIENTED_EDGE('',*,*,#265,.F.) ;
#287=ORIENTED_EDGE('',*,*,#226,.F.) ;
#135=FACE_BOUND('',#132,.T.) ;
#211=FACE_BOUND('',#208,.T.) ;
#51=CLOSED_SHELL('Closed Shell',(#91,#108,#136,#167,#184,#212,#243,#255,#277,#289)) ;
#59=VECTOR('Line Direction',#58,1.) ;
#75=VECTOR('Line Direction',#74,1.) ;
#144=VECTOR('Line Direction',#143,1.) ;
#158=VECTOR('Line Direction',#157,1.) ;
#229=VECTOR('Line Direction',#228,1.) ;
#234=VECTOR('Line Direction',#233,1.) ;
#263=VECTOR('Line Direction',#262,1.) ;
#268=VECTOR('Line Direction',#267,1.) ;
#291=ADVANCED_BREP_SHAPE_REPRESENTATION('NONE',(#290),#46) ;
#49=SHAPE_REPRESENTATION(' ',(#48),#46) ;
#91=ADVANCED_FACE('Corps principal',(#90),#56,.T.) ;
#108=ADVANCED_FACE('Corps principal',(#107),#56,.T.) ;
#136=ADVANCED_FACE('Corps principal',(#117,#135),#113,.F.) ;
#167=ADVANCED_FACE('Corps principal',(#166),#141,.F.) ;
#184=ADVANCED_FACE('Corps principal',(#183),#172,.F.) ;
#212=ADVANCED_FACE('Corps principal',(#193,#211),#189,.T.) ;
#243=ADVANCED_FACE('Corps principal',(#242),#217,.F.) ;
#255=ADVANCED_FACE('Corps principal',(#254),#217,.F.) ;
#277=ADVANCED_FACE('Corps principal',(#276),#260,.F.) ;
#289=ADVANCED_FACE('Corps principal',(#288),#282,.F.) ;
#4=APPLICATION_PROTOCOL_DEFINITION('international standard','config_control_design',1994,#1) ;
#32=APPROVAL_DATE_TIME(#13,#21) ;
#290=MANIFOLD_SOLID_BREP('Corps principal',#51) ;
#11=CALENDAR_DATE(2022,1,8) ;
#30=CC_DESIGN_APPROVAL(#21,(#16,#6,#14)) ;
#18=CC_DESIGN_DATE_AND_TIME_ASSIGNMENT(#13,#17,(#16)) ;
#29=CC_DESIGN_DATE_AND_TIME_ASSIGNMENT(#13,#28,(#14)) ;
#17=DATE_TIME_ROLE('classification_date') ;
#28=DATE_TIME_ROLE('creation_date') ;
#27=CC_DESIGN_PERSON_AND_ORGANIZATION_ASSIGNMENT(#25,#26,(#16)) ;
#33=CC_DESIGN_PERSON_AND_ORGANIZATION_ASSIGNMENT(#25,#34,(#6)) ;
#35=CC_DESIGN_PERSON_AND_ORGANIZATION_ASSIGNMENT(#25,#36,(#6,#14)) ;
#37=CC_DESIGN_PERSON_AND_ORGANIZATION_ASSIGNMENT(#25,#38,(#5)) ;
#26=PERSON_AND_ORGANIZATION_ROLE('classification_officer') ;
#34=PERSON_AND_ORGANIZATION_ROLE('design_supplier') ;
#36=PERSON_AND_ORGANIZATION_ROLE('creator') ;
#38=PERSON_AND_ORGANIZATION_ROLE('design_owner') ;
#39=CC_DESIGN_SECURITY_CLASSIFICATION(#16,(#6)) ;
#69=CIRCLE('generated circle',#68,27.) ;
#83=CIRCLE('generated circle',#82,27.) ;
#95=CIRCLE('generated circle',#94,27.) ;
#100=CIRCLE('generated circle',#99,27.) ;
#121=CIRCLE('generated circle',#120,24.5) ;
#130=CIRCLE('generated circle',#129,24.5) ;
#152=CIRCLE('generated circle',#151,24.) ;
#176=CIRCLE('generated circle',#175,24.) ;
#197=CIRCLE('generated circle',#196,24.5) ;
#206=CIRCLE('generated circle',#205,24.5) ;
#221=CIRCLE('generated circle',#220,24.) ;
#247=CIRCLE('generated circle',#246,24.) ;
#141=CONICAL_SURFACE('Cone',#140,0.,0.785398163397) ;
#172=CONICAL_SURFACE('Cone',#171,0.,0.785398163397) ;
#260=CONICAL_SURFACE('Cone',#259,0.,0.785398163397) ;
#282=CONICAL_SURFACE('Cone',#281,0.,0.785398163397) ;
#292=SHAPE_REPRESENTATION_RELATIONSHIP(' ',' ',#49,#291) ;
#56=CYLINDRICAL_SURFACE('generated cylinder',#55,27.) ;
#217=CYLINDRICAL_SURFACE('generated cylinder',#216,24.) ;
#3=DESIGN_CONTEXT(' ',#1,'design') ;
#65=EDGE_CURVE('',#62,#64,#60,.T.) ;
#72=EDGE_CURVE('',#62,#71,#69,.T.) ;
#79=EDGE_CURVE('',#71,#78,#76,.T.) ;
#84=EDGE_CURVE('',#64,#78,#83,.T.) ;
#96=EDGE_CURVE('',#71,#62,#95,.T.) ;
#101=EDGE_CURVE('',#78,#64,#100,.T.) ;
#126=EDGE_CURVE('',#123,#125,#121,.T.) ;
#131=EDGE_CURVE('',#125,#123,#130,.T.) ;
#148=EDGE_CURVE('',#123,#147,#145,.F.) ;
#155=EDGE_CURVE('',#147,#154,#152,.T.) ;
#160=EDGE_CURVE('',#125,#154,#159,.F.) ;
#177=EDGE_CURVE('',#154,#147,#176,.T.) ;
#202=EDGE_CURVE('',#199,#201,#197,.T.) ;
#207=EDGE_CURVE('',#201,#199,#206,.T.) ;
#226=EDGE_CURVE('',#223,#225,#221,.T.) ;
#231=EDGE_CURVE('',#147,#225,#230,.T.) ;
#236=EDGE_CURVE('',#154,#223,#235,.T.) ;
#248=EDGE_CURVE('',#225,#223,#247,.T.) ;
#265=EDGE_CURVE('',#225,#201,#264,.T.) ;
#270=EDGE_CURVE('',#223,#199,#269,.T.) ;
#85=EDGE_LOOP('',(#86,#87,#88,#89)) ;
#102=EDGE_LOOP('',(#103,#104,#105,#106)) ;
#114=EDGE_LOOP('',(#115,#116)) ;
#132=EDGE_LOOP('',(#133,#134)) ;
#161=EDGE_LOOP('',(#162,#163,#164,#165)) ;
#178=EDGE_LOOP('',(#179,#180,#181,#182)) ;
#190=EDGE_LOOP('',(#191,#192)) ;
#208=EDGE_LOOP('',(#209,#210)) ;
#237=EDGE_LOOP('',(#238,#239,#240,#241)) ;
#249=EDGE_LOOP('',(#250,#251,#252,#253)) ;
#271=EDGE_LOOP('',(#272,#273,#274,#275)) ;
#283=EDGE_LOOP('',(#284,#285,#286,#287)) ;
#90=FACE_OUTER_BOUND('',#85,.T.) ;
#107=FACE_OUTER_BOUND('',#102,.T.) ;
#117=FACE_OUTER_BOUND('',#114,.T.) ;
#166=FACE_OUTER_BOUND('',#161,.T.) ;
#183=FACE_OUTER_BOUND('',#178,.T.) ;
#193=FACE_OUTER_BOUND('',#190,.T.) ;
#242=FACE_OUTER_BOUND('',#237,.T.) ;
#254=FACE_OUTER_BOUND('',#249,.T.) ;
#276=FACE_OUTER_BOUND('',#271,.T.) ;
#288=FACE_OUTER_BOUND('',#283,.T.) ;
#45=UNCERTAINTY_MEASURE_WITH_UNIT(LENGTH_MEASURE(0.005),#41,'distance_accuracy_value','CONFUSED CURVE UNCERTAINTY') ;
#60=LINE('Line',#57,#59) ;
#76=LINE('Line',#73,#75) ;
#145=LINE('Line',#142,#144) ;
#159=LINE('Line',#156,#158) ;
#230=LINE('Line',#227,#229) ;
#235=LINE('Line',#232,#234) ;
#264=LINE('Line',#261,#263) ;
#269=LINE('Line',#266,#268) ;
#2=MECHANICAL_CONTEXT(' ',#1,'mechanical') ;
#24=PERSONAL_ADDRESS(' ',' ',' ',' ',' ',' ',' ',' ',' ',' ',' ',' ',(#22),' ') ;
#113=PLANE('Plane',#112) ;
#189=PLANE('Plane',#188) ;
#43=PLANE_ANGLE_MEASURE_WITH_UNIT(PLANE_ANGLE_MEASURE(0.0174532925199),#42) ;
#7=PRODUCT_CATEGORY('part',$) ;
#9=PRODUCT_CATEGORY_RELATIONSHIP(' ',' ',#7,#8) ;
#6=PRODUCT_DEFINITION_FORMATION_WITH_SPECIFIED_SOURCE('',' ',#5,.NOT_KNOWN.) ;
#8=PRODUCT_RELATED_PRODUCT_CATEGORY('detail',$,(#5)) ;
#50=SHAPE_DEFINITION_REPRESENTATION(#40,#49) ;
#62=VERTEX_POINT('',#61) ;
#64=VERTEX_POINT('',#63) ;
#71=VERTEX_POINT('',#70) ;
#78=VERTEX_POINT('',#77) ;
#123=VERTEX_POINT('',#122) ;
#125=VERTEX_POINT('',#124) ;
#147=VERTEX_POINT('',#146) ;
#154=VERTEX_POINT('',#153) ;
#199=VERTEX_POINT('',#198) ;
#201=VERTEX_POINT('',#200) ;
#223=VERTEX_POINT('',#222) ;
#225=VERTEX_POINT('',#224) ;
#41=(LENGTH_UNIT()NAMED_UNIT(*)SI_UNIT(.MILLI.,.METRE.)) ;
#42=(NAMED_UNIT(*)PLANE_ANGLE_UNIT()SI_UNIT($,.RADIAN.)) ;
#44=(NAMED_UNIT(*)SI_UNIT($,.STERADIAN.)SOLID_ANGLE_UNIT()) ;
#46=(GEOMETRIC_REPRESENTATION_CONTEXT(3)GLOBAL_UNCERTAINTY_ASSIGNED_CONTEXT((#45))GLOBAL_UNIT_ASSIGNED_CONTEXT((#41,#42,#44))REPRESENTATION_CONTEXT(' ',' ')) ;
ENDSEC;
END-ISO-10303-21;
