ISO-10303-21;
HEADER;
/* Generated by software containing ST-Developer
 * from STEP Tools, Inc. (www.steptools.com) 
 */

FILE_DESCRIPTION(
/* description */ (''),
/* implementation_level */ '2;1');

FILE_NAME(
/* name */ 
'C:/Users/Philippe/Desktop/MOBICO/Client/Deegle/Devis/Laser-final/Susp
-Bras-fixation.step',
/* time_stamp */ '2022-08-17T09:28:55+02:00',
/* author */ (''),
/* organization */ (''),
/* preprocessor_version */ 'ST-DEVELOPER v19',
/* originating_system */ 'Autodesk Translation Framework v11.7.0.108',
/* authorisation */ '');

FILE_SCHEMA (('AUTOMOTIVE_DESIGN { 1 0 10303 214 3 1 1 }'));
ENDSEC;

DATA;
#10=MECHANICAL_DESIGN_GEOMETRIC_PRESENTATION_REPRESENTATION('',(#13),#222);
#11=SHAPE_REPRESENTATION_RELATIONSHIP('SRR','None',#229,#12);
#12=ADVANCED_BREP_SHAPE_REPRESENTATION('',(#14),#221);
#13=STYLED_ITEM('',(#238),#14);
#14=MANIFOLD_SOLID_BREP('Corps1',#130);
#15=FACE_BOUND('',#34,.T.);
#16=FACE_BOUND('',#37,.T.);
#17=PLANE('',#147);
#18=PLANE('',#148);
#19=PLANE('',#149);
#20=PLANE('',#150);
#21=PLANE('',#151);
#22=PLANE('',#152);
#23=FACE_OUTER_BOUND('',#30,.T.);
#24=FACE_OUTER_BOUND('',#31,.T.);
#25=FACE_OUTER_BOUND('',#32,.T.);
#26=FACE_OUTER_BOUND('',#33,.T.);
#27=FACE_OUTER_BOUND('',#35,.T.);
#28=FACE_OUTER_BOUND('',#36,.T.);
#29=FACE_OUTER_BOUND('',#38,.T.);
#30=EDGE_LOOP('',(#92,#93,#94,#95));
#31=EDGE_LOOP('',(#96,#97,#98,#99));
#32=EDGE_LOOP('',(#100,#101,#102,#103));
#33=EDGE_LOOP('',(#104,#105,#106,#107));
#34=EDGE_LOOP('',(#108));
#35=EDGE_LOOP('',(#109,#110,#111,#112));
#36=EDGE_LOOP('',(#113,#114,#115,#116));
#37=EDGE_LOOP('',(#117));
#38=EDGE_LOOP('',(#118,#119,#120,#121));
#39=LINE('',#191,#52);
#40=LINE('',#196,#53);
#41=LINE('',#198,#54);
#42=LINE('',#200,#55);
#43=LINE('',#201,#56);
#44=LINE('',#204,#57);
#45=LINE('',#206,#58);
#46=LINE('',#207,#59);
#47=LINE('',#210,#60);
#48=LINE('',#211,#61);
#49=LINE('',#214,#62);
#50=LINE('',#215,#63);
#51=LINE('',#217,#64);
#52=VECTOR('',#159,5.);
#53=VECTOR('',#164,10.);
#54=VECTOR('',#165,10.);
#55=VECTOR('',#166,10.);
#56=VECTOR('',#167,10.);
#57=VECTOR('',#170,10.);
#58=VECTOR('',#171,10.);
#59=VECTOR('',#172,10.);
#60=VECTOR('',#175,10.);
#61=VECTOR('',#176,10.);
#62=VECTOR('',#179,10.);
#63=VECTOR('',#180,10.);
#64=VECTOR('',#183,10.);
#65=CIRCLE('',#145,5.);
#66=CIRCLE('',#146,5.);
#67=VERTEX_POINT('',#188);
#68=VERTEX_POINT('',#190);
#69=VERTEX_POINT('',#194);
#70=VERTEX_POINT('',#195);
#71=VERTEX_POINT('',#197);
#72=VERTEX_POINT('',#199);
#73=VERTEX_POINT('',#203);
#74=VERTEX_POINT('',#205);
#75=VERTEX_POINT('',#209);
#76=VERTEX_POINT('',#213);
#77=EDGE_CURVE('',#67,#67,#65,.T.);
#78=EDGE_CURVE('',#67,#68,#39,.T.);
#79=EDGE_CURVE('',#68,#68,#66,.T.);
#80=EDGE_CURVE('',#69,#70,#40,.T.);
#81=EDGE_CURVE('',#70,#71,#41,.T.);
#82=EDGE_CURVE('',#71,#72,#42,.T.);
#83=EDGE_CURVE('',#72,#69,#43,.T.);
#84=EDGE_CURVE('',#70,#73,#44,.T.);
#85=EDGE_CURVE('',#74,#73,#45,.T.);
#86=EDGE_CURVE('',#71,#74,#46,.T.);
#87=EDGE_CURVE('',#75,#74,#47,.T.);
#88=EDGE_CURVE('',#72,#75,#48,.T.);
#89=EDGE_CURVE('',#76,#75,#49,.T.);
#90=EDGE_CURVE('',#69,#76,#50,.T.);
#91=EDGE_CURVE('',#73,#76,#51,.T.);
#92=ORIENTED_EDGE('',*,*,#77,.F.);
#93=ORIENTED_EDGE('',*,*,#78,.T.);
#94=ORIENTED_EDGE('',*,*,#79,.F.);
#95=ORIENTED_EDGE('',*,*,#78,.F.);
#96=ORIENTED_EDGE('',*,*,#80,.T.);
#97=ORIENTED_EDGE('',*,*,#81,.T.);
#98=ORIENTED_EDGE('',*,*,#82,.T.);
#99=ORIENTED_EDGE('',*,*,#83,.T.);
#100=ORIENTED_EDGE('',*,*,#84,.T.);
#101=ORIENTED_EDGE('',*,*,#85,.F.);
#102=ORIENTED_EDGE('',*,*,#86,.F.);
#103=ORIENTED_EDGE('',*,*,#81,.F.);
#104=ORIENTED_EDGE('',*,*,#86,.T.);
#105=ORIENTED_EDGE('',*,*,#87,.F.);
#106=ORIENTED_EDGE('',*,*,#88,.F.);
#107=ORIENTED_EDGE('',*,*,#82,.F.);
#108=ORIENTED_EDGE('',*,*,#79,.T.);
#109=ORIENTED_EDGE('',*,*,#88,.T.);
#110=ORIENTED_EDGE('',*,*,#89,.F.);
#111=ORIENTED_EDGE('',*,*,#90,.F.);
#112=ORIENTED_EDGE('',*,*,#83,.F.);
#113=ORIENTED_EDGE('',*,*,#90,.T.);
#114=ORIENTED_EDGE('',*,*,#91,.F.);
#115=ORIENTED_EDGE('',*,*,#84,.F.);
#116=ORIENTED_EDGE('',*,*,#80,.F.);
#117=ORIENTED_EDGE('',*,*,#77,.T.);
#118=ORIENTED_EDGE('',*,*,#91,.T.);
#119=ORIENTED_EDGE('',*,*,#89,.T.);
#120=ORIENTED_EDGE('',*,*,#87,.T.);
#121=ORIENTED_EDGE('',*,*,#85,.T.);
#122=CYLINDRICAL_SURFACE('',#144,5.);
#123=ADVANCED_FACE('',(#23),#122,.F.);
#124=ADVANCED_FACE('',(#24),#17,.T.);
#125=ADVANCED_FACE('',(#25),#18,.T.);
#126=ADVANCED_FACE('',(#26,#15),#19,.T.);
#127=ADVANCED_FACE('',(#27),#20,.T.);
#128=ADVANCED_FACE('',(#28,#16),#21,.T.);
#129=ADVANCED_FACE('',(#29),#22,.T.);
#130=CLOSED_SHELL('',(#123,#124,#125,#126,#127,#128,#129));
#131=DERIVED_UNIT_ELEMENT(#133,1.);
#132=DERIVED_UNIT_ELEMENT(#224,-3.);
#133=(
MASS_UNIT()
NAMED_UNIT(*)
SI_UNIT(.KILO.,.GRAM.)
);
#134=DERIVED_UNIT((#131,#132));
#135=MEASURE_REPRESENTATION_ITEM('density measure',
POSITIVE_RATIO_MEASURE(7850.),#134);
#136=PROPERTY_DEFINITION_REPRESENTATION(#141,#138);
#137=PROPERTY_DEFINITION_REPRESENTATION(#142,#139);
#138=REPRESENTATION('material name',(#140),#221);
#139=REPRESENTATION('density',(#135),#221);
#140=DESCRIPTIVE_REPRESENTATION_ITEM('Acier','Acier');
#141=PROPERTY_DEFINITION('material property','material name',#231);
#142=PROPERTY_DEFINITION('material property','density of part',#231);
#143=AXIS2_PLACEMENT_3D('placement',#186,#153,#154);
#144=AXIS2_PLACEMENT_3D('',#187,#155,#156);
#145=AXIS2_PLACEMENT_3D('',#189,#157,#158);
#146=AXIS2_PLACEMENT_3D('',#192,#160,#161);
#147=AXIS2_PLACEMENT_3D('',#193,#162,#163);
#148=AXIS2_PLACEMENT_3D('',#202,#168,#169);
#149=AXIS2_PLACEMENT_3D('',#208,#173,#174);
#150=AXIS2_PLACEMENT_3D('',#212,#177,#178);
#151=AXIS2_PLACEMENT_3D('',#216,#181,#182);
#152=AXIS2_PLACEMENT_3D('',#218,#184,#185);
#153=DIRECTION('axis',(0.,0.,1.));
#154=DIRECTION('refdir',(1.,0.,0.));
#155=DIRECTION('center_axis',(0.,1.,0.));
#156=DIRECTION('ref_axis',(1.,0.,0.));
#157=DIRECTION('center_axis',(0.,1.,0.));
#158=DIRECTION('ref_axis',(1.,0.,0.));
#159=DIRECTION('',(0.,1.,0.));
#160=DIRECTION('center_axis',(0.,-1.,0.));
#161=DIRECTION('ref_axis',(1.,0.,0.));
#162=DIRECTION('center_axis',(-1.,0.,0.));
#163=DIRECTION('ref_axis',(0.,0.,1.));
#164=DIRECTION('',(0.,0.,1.));
#165=DIRECTION('',(0.,1.,0.));
#166=DIRECTION('',(0.,0.,-1.));
#167=DIRECTION('',(0.,-1.,0.));
#168=DIRECTION('center_axis',(0.,0.,1.));
#169=DIRECTION('ref_axis',(0.,-1.,0.));
#170=DIRECTION('',(1.,0.,0.));
#171=DIRECTION('',(0.,-1.,0.));
#172=DIRECTION('',(1.,0.,0.));
#173=DIRECTION('center_axis',(0.,1.,0.));
#174=DIRECTION('ref_axis',(0.,0.,1.));
#175=DIRECTION('',(0.,0.,1.));
#176=DIRECTION('',(1.,0.,0.));
#177=DIRECTION('center_axis',(0.,0.,-1.));
#178=DIRECTION('ref_axis',(0.,1.,0.));
#179=DIRECTION('',(0.,1.,0.));
#180=DIRECTION('',(1.,0.,0.));
#181=DIRECTION('center_axis',(0.,-1.,0.));
#182=DIRECTION('ref_axis',(0.,0.,-1.));
#183=DIRECTION('',(0.,0.,-1.));
#184=DIRECTION('center_axis',(1.,0.,0.));
#185=DIRECTION('ref_axis',(0.,0.,-1.));
#186=CARTESIAN_POINT('',(0.,0.,0.));
#187=CARTESIAN_POINT('Origin',(0.,0.,0.));
#188=CARTESIAN_POINT('',(-5.,0.,6.12323399573677E-16));
#189=CARTESIAN_POINT('Origin',(0.,0.,0.));
#190=CARTESIAN_POINT('',(-5.,5.,-6.12323399573677E-16));
#191=CARTESIAN_POINT('',(-5.,0.,6.12323399573677E-16));
#192=CARTESIAN_POINT('Origin',(0.,5.,0.));
#193=CARTESIAN_POINT('Origin',(-50.,2.5,-2.23517417907715E-7));
#194=CARTESIAN_POINT('',(-50.,2.22044604925031E-15,-15.0000002235174));
#195=CARTESIAN_POINT('',(-50.,0.,14.9999997764826));
#196=CARTESIAN_POINT('',(-50.,0.,10.));
#197=CARTESIAN_POINT('',(-50.,5.,14.9999997764826));
#198=CARTESIAN_POINT('',(-50.,0.,14.9999997764826));
#199=CARTESIAN_POINT('',(-50.,5.,-15.0000002235174));
#200=CARTESIAN_POINT('',(-50.,5.,14.9999997764826));
#201=CARTESIAN_POINT('',(-50.,2.22044604925031E-15,-15.0000002235174));
#202=CARTESIAN_POINT('Origin',(0.,5.,14.9999997764826));
#203=CARTESIAN_POINT('',(50.,0.,14.9999997764826));
#204=CARTESIAN_POINT('',(0.,0.,14.9999997764826));
#205=CARTESIAN_POINT('',(50.,5.,14.9999997764826));
#206=CARTESIAN_POINT('',(50.,0.,14.9999997764826));
#207=CARTESIAN_POINT('',(0.,5.,14.9999997764826));
#208=CARTESIAN_POINT('Origin',(0.,5.,-15.0000002235174));
#209=CARTESIAN_POINT('',(50.,5.,-15.0000002235174));
#210=CARTESIAN_POINT('',(50.,5.,14.9999997764826));
#211=CARTESIAN_POINT('',(0.,5.,-15.0000002235174));
#212=CARTESIAN_POINT('Origin',(0.,2.22044604925031E-15,-15.0000002235174));
#213=CARTESIAN_POINT('',(50.,2.22044604925031E-15,-15.0000002235174));
#214=CARTESIAN_POINT('',(50.,2.22044604925031E-15,-15.0000002235174));
#215=CARTESIAN_POINT('',(0.,2.22044604925031E-15,-15.0000002235174));
#216=CARTESIAN_POINT('Origin',(0.,0.,14.9999997764826));
#217=CARTESIAN_POINT('',(50.,0.,10.));
#218=CARTESIAN_POINT('Origin',(50.,2.5,-2.23517417907715E-7));
#219=UNCERTAINTY_MEASURE_WITH_UNIT(LENGTH_MEASURE(0.01),#223,
'DISTANCE_ACCURACY_VALUE',
'Maximum model space distance between geometric entities at asserted c
onnectivities');
#220=UNCERTAINTY_MEASURE_WITH_UNIT(LENGTH_MEASURE(0.01),#223,
'DISTANCE_ACCURACY_VALUE',
'Maximum model space distance between geometric entities at asserted c
onnectivities');
#221=(
GEOMETRIC_REPRESENTATION_CONTEXT(3)
GLOBAL_UNCERTAINTY_ASSIGNED_CONTEXT((#219))
GLOBAL_UNIT_ASSIGNED_CONTEXT((#223,#225,#226))
REPRESENTATION_CONTEXT('','3D')
);
#222=(
GEOMETRIC_REPRESENTATION_CONTEXT(3)
GLOBAL_UNCERTAINTY_ASSIGNED_CONTEXT((#220))
GLOBAL_UNIT_ASSIGNED_CONTEXT((#223,#225,#226))
REPRESENTATION_CONTEXT('','3D')
);
#223=(
LENGTH_UNIT()
NAMED_UNIT(*)
SI_UNIT(.MILLI.,.METRE.)
);
#224=(
LENGTH_UNIT()
NAMED_UNIT(*)
SI_UNIT($,.METRE.)
);
#225=(
NAMED_UNIT(*)
PLANE_ANGLE_UNIT()
SI_UNIT($,.RADIAN.)
);
#226=(
NAMED_UNIT(*)
SI_UNIT($,.STERADIAN.)
SOLID_ANGLE_UNIT()
);
#227=SHAPE_DEFINITION_REPRESENTATION(#228,#229);
#228=PRODUCT_DEFINITION_SHAPE('',$,#231);
#229=SHAPE_REPRESENTATION('',(#143),#221);
#230=PRODUCT_DEFINITION_CONTEXT('part definition',#235,'design');
#231=PRODUCT_DEFINITION('FusionComponent','FusionComponent',#232,#230);
#232=PRODUCT_DEFINITION_FORMATION('',$,#237);
#233=PRODUCT_RELATED_PRODUCT_CATEGORY('FusionComponent',
'FusionComponent',(#237));
#234=APPLICATION_PROTOCOL_DEFINITION('international standard',
'automotive_design',2009,#235);
#235=APPLICATION_CONTEXT(
'Core Data for Automotive Mechanical Design Process');
#236=PRODUCT_CONTEXT('part definition',#235,'mechanical');
#237=PRODUCT('FusionComponent','FusionComponent',$,(#236));
#238=PRESENTATION_STYLE_ASSIGNMENT((#239));
#239=SURFACE_STYLE_USAGE(.BOTH.,#240);
#240=SURFACE_SIDE_STYLE('',(#241));
#241=SURFACE_STYLE_FILL_AREA(#242);
#242=FILL_AREA_STYLE('Acier - Satin\X\E9',(#243));
#243=FILL_AREA_STYLE_COLOUR('Acier - Satin\X\E9',#244);
#244=COLOUR_RGB('Acier - Satin\X\E9',0.627450980392157,0.627450980392157,
0.627450980392157);
ENDSEC;
END-ISO-10303-21;
