ISO-10303-21;
HEADER;
/* Generated by software containing ST-Developer
 * from STEP Tools, Inc. (www.steptools.com) 
 */

FILE_DESCRIPTION(
/* description */ (''),
/* implementation_level */ '2;1');

FILE_NAME(
/* name */ '/Users/aymeric/Desktop/MV-PLAQUE COMPTEUR avec IRE v1.step',

/* time_stamp */ '2022-08-02T16:36:54+02:00',
/* author */ (''),
/* organization */ (''),
/* preprocessor_version */ 'ST-DEVELOPER v19',
/* originating_system */ 'Autodesk Translation Framework v11.7.0.108',
/* authorisation */ '');

FILE_SCHEMA (('AUTOMOTIVE_DESIGN { 1 0 10303 214 3 1 1 }'));
ENDSEC;

DATA;
#10=MECHANICAL_DESIGN_GEOMETRIC_PRESENTATION_REPRESENTATION('',(#13),#572);
#11=SHAPE_REPRESENTATION_RELATIONSHIP('SRR','None',#579,#12);
#12=ADVANCED_BREP_SHAPE_REPRESENTATION('',(#14),#571);
#13=STYLED_ITEM('',(#588),#14);
#14=MANIFOLD_SOLID_BREP('Corps1',#344);
#15=FACE_BOUND('',#71,.T.);
#16=FACE_BOUND('',#72,.T.);
#17=FACE_BOUND('',#73,.T.);
#18=FACE_BOUND('',#74,.T.);
#19=FACE_BOUND('',#76,.T.);
#20=FACE_BOUND('',#77,.T.);
#21=FACE_BOUND('',#78,.T.);
#22=FACE_BOUND('',#79,.T.);
#23=CIRCLE('',#363,1.35);
#24=CIRCLE('',#364,1.35);
#25=CIRCLE('',#366,3.);
#26=CIRCLE('',#367,3.);
#27=CIRCLE('',#369,1.35);
#28=CIRCLE('',#370,1.35);
#29=CIRCLE('',#374,42.6);
#30=CIRCLE('',#375,42.6);
#31=CIRCLE('',#380,42.6);
#32=CIRCLE('',#381,42.6);
#33=CYLINDRICAL_SURFACE('',#362,1.35);
#34=CYLINDRICAL_SURFACE('',#365,3.);
#35=CYLINDRICAL_SURFACE('',#368,1.35);
#36=CYLINDRICAL_SURFACE('',#373,42.6);
#37=CYLINDRICAL_SURFACE('',#379,42.6);
#38=FACE_OUTER_BOUND('',#55,.T.);
#39=FACE_OUTER_BOUND('',#56,.T.);
#40=FACE_OUTER_BOUND('',#57,.T.);
#41=FACE_OUTER_BOUND('',#58,.T.);
#42=FACE_OUTER_BOUND('',#59,.T.);
#43=FACE_OUTER_BOUND('',#60,.T.);
#44=FACE_OUTER_BOUND('',#61,.T.);
#45=FACE_OUTER_BOUND('',#62,.T.);
#46=FACE_OUTER_BOUND('',#63,.T.);
#47=FACE_OUTER_BOUND('',#64,.T.);
#48=FACE_OUTER_BOUND('',#65,.T.);
#49=FACE_OUTER_BOUND('',#66,.T.);
#50=FACE_OUTER_BOUND('',#67,.T.);
#51=FACE_OUTER_BOUND('',#68,.T.);
#52=FACE_OUTER_BOUND('',#69,.T.);
#53=FACE_OUTER_BOUND('',#70,.T.);
#54=FACE_OUTER_BOUND('',#75,.T.);
#55=EDGE_LOOP('',(#225,#226,#227,#228));
#56=EDGE_LOOP('',(#229,#230,#231,#232));
#57=EDGE_LOOP('',(#233,#234,#235,#236));
#58=EDGE_LOOP('',(#237,#238,#239,#240));
#59=EDGE_LOOP('',(#241,#242,#243,#244));
#60=EDGE_LOOP('',(#245,#246,#247,#248));
#61=EDGE_LOOP('',(#249,#250,#251,#252));
#62=EDGE_LOOP('',(#253,#254,#255,#256));
#63=EDGE_LOOP('',(#257,#258,#259,#260));
#64=EDGE_LOOP('',(#261,#262,#263,#264));
#65=EDGE_LOOP('',(#265,#266,#267,#268));
#66=EDGE_LOOP('',(#269,#270,#271,#272));
#67=EDGE_LOOP('',(#273,#274,#275,#276));
#68=EDGE_LOOP('',(#277,#278,#279,#280));
#69=EDGE_LOOP('',(#281,#282,#283,#284));
#70=EDGE_LOOP('',(#285,#286,#287,#288,#289,#290,#291,#292));
#71=EDGE_LOOP('',(#293,#294,#295,#296));
#72=EDGE_LOOP('',(#297));
#73=EDGE_LOOP('',(#298));
#74=EDGE_LOOP('',(#299));
#75=EDGE_LOOP('',(#300,#301,#302,#303,#304,#305,#306,#307));
#76=EDGE_LOOP('',(#308,#309,#310,#311));
#77=EDGE_LOOP('',(#312));
#78=EDGE_LOOP('',(#313));
#79=EDGE_LOOP('',(#314));
#80=LINE('',#480,#115);
#81=LINE('',#482,#116);
#82=LINE('',#484,#117);
#83=LINE('',#485,#118);
#84=LINE('',#488,#119);
#85=LINE('',#490,#120);
#86=LINE('',#491,#121);
#87=LINE('',#494,#122);
#88=LINE('',#496,#123);
#89=LINE('',#497,#124);
#90=LINE('',#499,#125);
#91=LINE('',#500,#126);
#92=LINE('',#505,#127);
#93=LINE('',#511,#128);
#94=LINE('',#517,#129);
#95=LINE('',#522,#130);
#96=LINE('',#524,#131);
#97=LINE('',#526,#132);
#98=LINE('',#527,#133);
#99=LINE('',#530,#134);
#100=LINE('',#532,#135);
#101=LINE('',#533,#136);
#102=LINE('',#539,#137);
#103=LINE('',#542,#138);
#104=LINE('',#544,#139);
#105=LINE('',#545,#140);
#106=LINE('',#548,#141);
#107=LINE('',#550,#142);
#108=LINE('',#551,#143);
#109=LINE('',#554,#144);
#110=LINE('',#556,#145);
#111=LINE('',#557,#146);
#112=LINE('',#563,#147);
#113=LINE('',#565,#148);
#114=LINE('',#566,#149);
#115=VECTOR('',#389,10.);
#116=VECTOR('',#390,10.);
#117=VECTOR('',#391,10.);
#118=VECTOR('',#392,10.);
#119=VECTOR('',#395,10.);
#120=VECTOR('',#396,10.);
#121=VECTOR('',#397,10.);
#122=VECTOR('',#400,10.);
#123=VECTOR('',#401,10.);
#124=VECTOR('',#402,10.);
#125=VECTOR('',#405,10.);
#126=VECTOR('',#406,10.);
#127=VECTOR('',#411,1.35);
#128=VECTOR('',#418,3.);
#129=VECTOR('',#425,1.35);
#130=VECTOR('',#430,10.);
#131=VECTOR('',#431,10.);
#132=VECTOR('',#432,10.);
#133=VECTOR('',#433,10.);
#134=VECTOR('',#436,10.);
#135=VECTOR('',#437,10.);
#136=VECTOR('',#438,10.);
#137=VECTOR('',#445,10.);
#138=VECTOR('',#448,10.);
#139=VECTOR('',#449,10.);
#140=VECTOR('',#450,10.);
#141=VECTOR('',#453,10.);
#142=VECTOR('',#454,10.);
#143=VECTOR('',#455,10.);
#144=VECTOR('',#458,10.);
#145=VECTOR('',#459,10.);
#146=VECTOR('',#460,10.);
#147=VECTOR('',#467,10.);
#148=VECTOR('',#470,10.);
#149=VECTOR('',#471,10.);
#150=VERTEX_POINT('',#478);
#151=VERTEX_POINT('',#479);
#152=VERTEX_POINT('',#481);
#153=VERTEX_POINT('',#483);
#154=VERTEX_POINT('',#487);
#155=VERTEX_POINT('',#489);
#156=VERTEX_POINT('',#493);
#157=VERTEX_POINT('',#495);
#158=VERTEX_POINT('',#502);
#159=VERTEX_POINT('',#504);
#160=VERTEX_POINT('',#508);
#161=VERTEX_POINT('',#510);
#162=VERTEX_POINT('',#514);
#163=VERTEX_POINT('',#516);
#164=VERTEX_POINT('',#520);
#165=VERTEX_POINT('',#521);
#166=VERTEX_POINT('',#523);
#167=VERTEX_POINT('',#525);
#168=VERTEX_POINT('',#529);
#169=VERTEX_POINT('',#531);
#170=VERTEX_POINT('',#535);
#171=VERTEX_POINT('',#537);
#172=VERTEX_POINT('',#541);
#173=VERTEX_POINT('',#543);
#174=VERTEX_POINT('',#547);
#175=VERTEX_POINT('',#549);
#176=VERTEX_POINT('',#553);
#177=VERTEX_POINT('',#555);
#178=VERTEX_POINT('',#559);
#179=VERTEX_POINT('',#561);
#180=EDGE_CURVE('',#150,#151,#80,.T.);
#181=EDGE_CURVE('',#152,#150,#81,.T.);
#182=EDGE_CURVE('',#153,#152,#82,.T.);
#183=EDGE_CURVE('',#153,#151,#83,.T.);
#184=EDGE_CURVE('',#151,#154,#84,.T.);
#185=EDGE_CURVE('',#155,#153,#85,.T.);
#186=EDGE_CURVE('',#155,#154,#86,.T.);
#187=EDGE_CURVE('',#154,#156,#87,.T.);
#188=EDGE_CURVE('',#157,#155,#88,.T.);
#189=EDGE_CURVE('',#157,#156,#89,.T.);
#190=EDGE_CURVE('',#156,#150,#90,.T.);
#191=EDGE_CURVE('',#152,#157,#91,.T.);
#192=EDGE_CURVE('',#158,#158,#23,.T.);
#193=EDGE_CURVE('',#158,#159,#92,.T.);
#194=EDGE_CURVE('',#159,#159,#24,.T.);
#195=EDGE_CURVE('',#160,#160,#25,.T.);
#196=EDGE_CURVE('',#160,#161,#93,.T.);
#197=EDGE_CURVE('',#161,#161,#26,.T.);
#198=EDGE_CURVE('',#162,#162,#27,.T.);
#199=EDGE_CURVE('',#162,#163,#94,.T.);
#200=EDGE_CURVE('',#163,#163,#28,.T.);
#201=EDGE_CURVE('',#164,#165,#95,.T.);
#202=EDGE_CURVE('',#164,#166,#96,.T.);
#203=EDGE_CURVE('',#167,#166,#97,.T.);
#204=EDGE_CURVE('',#165,#167,#98,.T.);
#205=EDGE_CURVE('',#165,#168,#99,.T.);
#206=EDGE_CURVE('',#169,#167,#100,.T.);
#207=EDGE_CURVE('',#168,#169,#101,.T.);
#208=EDGE_CURVE('',#170,#168,#29,.T.);
#209=EDGE_CURVE('',#171,#169,#30,.T.);
#210=EDGE_CURVE('',#170,#171,#102,.T.);
#211=EDGE_CURVE('',#170,#172,#103,.T.);
#212=EDGE_CURVE('',#173,#171,#104,.T.);
#213=EDGE_CURVE('',#172,#173,#105,.T.);
#214=EDGE_CURVE('',#172,#174,#106,.T.);
#215=EDGE_CURVE('',#175,#173,#107,.T.);
#216=EDGE_CURVE('',#174,#175,#108,.T.);
#217=EDGE_CURVE('',#174,#176,#109,.T.);
#218=EDGE_CURVE('',#177,#175,#110,.T.);
#219=EDGE_CURVE('',#176,#177,#111,.T.);
#220=EDGE_CURVE('',#178,#176,#31,.T.);
#221=EDGE_CURVE('',#179,#177,#32,.T.);
#222=EDGE_CURVE('',#178,#179,#112,.T.);
#223=EDGE_CURVE('',#178,#164,#113,.T.);
#224=EDGE_CURVE('',#166,#179,#114,.T.);
#225=ORIENTED_EDGE('',*,*,#180,.F.);
#226=ORIENTED_EDGE('',*,*,#181,.F.);
#227=ORIENTED_EDGE('',*,*,#182,.F.);
#228=ORIENTED_EDGE('',*,*,#183,.T.);
#229=ORIENTED_EDGE('',*,*,#184,.F.);
#230=ORIENTED_EDGE('',*,*,#183,.F.);
#231=ORIENTED_EDGE('',*,*,#185,.F.);
#232=ORIENTED_EDGE('',*,*,#186,.T.);
#233=ORIENTED_EDGE('',*,*,#187,.F.);
#234=ORIENTED_EDGE('',*,*,#186,.F.);
#235=ORIENTED_EDGE('',*,*,#188,.F.);
#236=ORIENTED_EDGE('',*,*,#189,.T.);
#237=ORIENTED_EDGE('',*,*,#190,.F.);
#238=ORIENTED_EDGE('',*,*,#189,.F.);
#239=ORIENTED_EDGE('',*,*,#191,.F.);
#240=ORIENTED_EDGE('',*,*,#181,.T.);
#241=ORIENTED_EDGE('',*,*,#192,.F.);
#242=ORIENTED_EDGE('',*,*,#193,.T.);
#243=ORIENTED_EDGE('',*,*,#194,.T.);
#244=ORIENTED_EDGE('',*,*,#193,.F.);
#245=ORIENTED_EDGE('',*,*,#195,.F.);
#246=ORIENTED_EDGE('',*,*,#196,.T.);
#247=ORIENTED_EDGE('',*,*,#197,.T.);
#248=ORIENTED_EDGE('',*,*,#196,.F.);
#249=ORIENTED_EDGE('',*,*,#198,.F.);
#250=ORIENTED_EDGE('',*,*,#199,.T.);
#251=ORIENTED_EDGE('',*,*,#200,.T.);
#252=ORIENTED_EDGE('',*,*,#199,.F.);
#253=ORIENTED_EDGE('',*,*,#201,.F.);
#254=ORIENTED_EDGE('',*,*,#202,.T.);
#255=ORIENTED_EDGE('',*,*,#203,.F.);
#256=ORIENTED_EDGE('',*,*,#204,.F.);
#257=ORIENTED_EDGE('',*,*,#205,.F.);
#258=ORIENTED_EDGE('',*,*,#204,.T.);
#259=ORIENTED_EDGE('',*,*,#206,.F.);
#260=ORIENTED_EDGE('',*,*,#207,.F.);
#261=ORIENTED_EDGE('',*,*,#208,.T.);
#262=ORIENTED_EDGE('',*,*,#207,.T.);
#263=ORIENTED_EDGE('',*,*,#209,.F.);
#264=ORIENTED_EDGE('',*,*,#210,.F.);
#265=ORIENTED_EDGE('',*,*,#211,.F.);
#266=ORIENTED_EDGE('',*,*,#210,.T.);
#267=ORIENTED_EDGE('',*,*,#212,.F.);
#268=ORIENTED_EDGE('',*,*,#213,.F.);
#269=ORIENTED_EDGE('',*,*,#214,.F.);
#270=ORIENTED_EDGE('',*,*,#213,.T.);
#271=ORIENTED_EDGE('',*,*,#215,.F.);
#272=ORIENTED_EDGE('',*,*,#216,.F.);
#273=ORIENTED_EDGE('',*,*,#217,.F.);
#274=ORIENTED_EDGE('',*,*,#216,.T.);
#275=ORIENTED_EDGE('',*,*,#218,.F.);
#276=ORIENTED_EDGE('',*,*,#219,.F.);
#277=ORIENTED_EDGE('',*,*,#220,.T.);
#278=ORIENTED_EDGE('',*,*,#219,.T.);
#279=ORIENTED_EDGE('',*,*,#221,.F.);
#280=ORIENTED_EDGE('',*,*,#222,.F.);
#281=ORIENTED_EDGE('',*,*,#223,.F.);
#282=ORIENTED_EDGE('',*,*,#222,.T.);
#283=ORIENTED_EDGE('',*,*,#224,.F.);
#284=ORIENTED_EDGE('',*,*,#202,.F.);
#285=ORIENTED_EDGE('',*,*,#224,.T.);
#286=ORIENTED_EDGE('',*,*,#221,.T.);
#287=ORIENTED_EDGE('',*,*,#218,.T.);
#288=ORIENTED_EDGE('',*,*,#215,.T.);
#289=ORIENTED_EDGE('',*,*,#212,.T.);
#290=ORIENTED_EDGE('',*,*,#209,.T.);
#291=ORIENTED_EDGE('',*,*,#206,.T.);
#292=ORIENTED_EDGE('',*,*,#203,.T.);
#293=ORIENTED_EDGE('',*,*,#182,.T.);
#294=ORIENTED_EDGE('',*,*,#191,.T.);
#295=ORIENTED_EDGE('',*,*,#188,.T.);
#296=ORIENTED_EDGE('',*,*,#185,.T.);
#297=ORIENTED_EDGE('',*,*,#198,.T.);
#298=ORIENTED_EDGE('',*,*,#195,.T.);
#299=ORIENTED_EDGE('',*,*,#192,.T.);
#300=ORIENTED_EDGE('',*,*,#223,.T.);
#301=ORIENTED_EDGE('',*,*,#201,.T.);
#302=ORIENTED_EDGE('',*,*,#205,.T.);
#303=ORIENTED_EDGE('',*,*,#208,.F.);
#304=ORIENTED_EDGE('',*,*,#211,.T.);
#305=ORIENTED_EDGE('',*,*,#214,.T.);
#306=ORIENTED_EDGE('',*,*,#217,.T.);
#307=ORIENTED_EDGE('',*,*,#220,.F.);
#308=ORIENTED_EDGE('',*,*,#180,.T.);
#309=ORIENTED_EDGE('',*,*,#184,.T.);
#310=ORIENTED_EDGE('',*,*,#187,.T.);
#311=ORIENTED_EDGE('',*,*,#190,.T.);
#312=ORIENTED_EDGE('',*,*,#200,.F.);
#313=ORIENTED_EDGE('',*,*,#197,.F.);
#314=ORIENTED_EDGE('',*,*,#194,.F.);
#315=PLANE('',#358);
#316=PLANE('',#359);
#317=PLANE('',#360);
#318=PLANE('',#361);
#319=PLANE('',#371);
#320=PLANE('',#372);
#321=PLANE('',#376);
#322=PLANE('',#377);
#323=PLANE('',#378);
#324=PLANE('',#382);
#325=PLANE('',#383);
#326=PLANE('',#384);
#327=ADVANCED_FACE('',(#38),#315,.F.);
#328=ADVANCED_FACE('',(#39),#316,.F.);
#329=ADVANCED_FACE('',(#40),#317,.F.);
#330=ADVANCED_FACE('',(#41),#318,.F.);
#331=ADVANCED_FACE('',(#42),#33,.F.);
#332=ADVANCED_FACE('',(#43),#34,.F.);
#333=ADVANCED_FACE('',(#44),#35,.F.);
#334=ADVANCED_FACE('',(#45),#319,.T.);
#335=ADVANCED_FACE('',(#46),#320,.T.);
#336=ADVANCED_FACE('',(#47),#36,.T.);
#337=ADVANCED_FACE('',(#48),#321,.T.);
#338=ADVANCED_FACE('',(#49),#322,.T.);
#339=ADVANCED_FACE('',(#50),#323,.T.);
#340=ADVANCED_FACE('',(#51),#37,.T.);
#341=ADVANCED_FACE('',(#52),#324,.T.);
#342=ADVANCED_FACE('',(#53,#15,#16,#17,#18),#325,.T.);
#343=ADVANCED_FACE('',(#54,#19,#20,#21,#22),#326,.F.);
#344=CLOSED_SHELL('',(#327,#328,#329,#330,#331,#332,#333,#334,#335,#336,
#337,#338,#339,#340,#341,#342,#343));
#345=DERIVED_UNIT_ELEMENT(#347,1.);
#346=DERIVED_UNIT_ELEMENT(#574,-3.);
#347=(
MASS_UNIT()
NAMED_UNIT(*)
SI_UNIT(.KILO.,.GRAM.)
);
#348=DERIVED_UNIT((#345,#346));
#349=MEASURE_REPRESENTATION_ITEM('density measure',
POSITIVE_RATIO_MEASURE(7850.),#348);
#350=PROPERTY_DEFINITION_REPRESENTATION(#355,#352);
#351=PROPERTY_DEFINITION_REPRESENTATION(#356,#353);
#352=REPRESENTATION('material name',(#354),#571);
#353=REPRESENTATION('density',(#349),#571);
#354=DESCRIPTIVE_REPRESENTATION_ITEM('Acier','Acier');
#355=PROPERTY_DEFINITION('material property','material name',#581);
#356=PROPERTY_DEFINITION('material property','density of part',#581);
#357=AXIS2_PLACEMENT_3D('placement',#476,#385,#386);
#358=AXIS2_PLACEMENT_3D('',#477,#387,#388);
#359=AXIS2_PLACEMENT_3D('',#486,#393,#394);
#360=AXIS2_PLACEMENT_3D('',#492,#398,#399);
#361=AXIS2_PLACEMENT_3D('',#498,#403,#404);
#362=AXIS2_PLACEMENT_3D('',#501,#407,#408);
#363=AXIS2_PLACEMENT_3D('',#503,#409,#410);
#364=AXIS2_PLACEMENT_3D('',#506,#412,#413);
#365=AXIS2_PLACEMENT_3D('',#507,#414,#415);
#366=AXIS2_PLACEMENT_3D('',#509,#416,#417);
#367=AXIS2_PLACEMENT_3D('',#512,#419,#420);
#368=AXIS2_PLACEMENT_3D('',#513,#421,#422);
#369=AXIS2_PLACEMENT_3D('',#515,#423,#424);
#370=AXIS2_PLACEMENT_3D('',#518,#426,#427);
#371=AXIS2_PLACEMENT_3D('',#519,#428,#429);
#372=AXIS2_PLACEMENT_3D('',#528,#434,#435);
#373=AXIS2_PLACEMENT_3D('',#534,#439,#440);
#374=AXIS2_PLACEMENT_3D('',#536,#441,#442);
#375=AXIS2_PLACEMENT_3D('',#538,#443,#444);
#376=AXIS2_PLACEMENT_3D('',#540,#446,#447);
#377=AXIS2_PLACEMENT_3D('',#546,#451,#452);
#378=AXIS2_PLACEMENT_3D('',#552,#456,#457);
#379=AXIS2_PLACEMENT_3D('',#558,#461,#462);
#380=AXIS2_PLACEMENT_3D('',#560,#463,#464);
#381=AXIS2_PLACEMENT_3D('',#562,#465,#466);
#382=AXIS2_PLACEMENT_3D('',#564,#468,#469);
#383=AXIS2_PLACEMENT_3D('',#567,#472,#473);
#384=AXIS2_PLACEMENT_3D('',#568,#474,#475);
#385=DIRECTION('axis',(0.,0.,1.));
#386=DIRECTION('refdir',(1.,0.,0.));
#387=DIRECTION('center_axis',(-1.,0.,0.));
#388=DIRECTION('ref_axis',(0.,1.,0.));
#389=DIRECTION('',(0.,-1.,0.));
#390=DIRECTION('',(0.,0.,-1.));
#391=DIRECTION('',(0.,1.,0.));
#392=DIRECTION('',(0.,0.,-1.));
#393=DIRECTION('center_axis',(0.,-1.,0.));
#394=DIRECTION('ref_axis',(-1.,0.,0.));
#395=DIRECTION('',(1.,0.,0.));
#396=DIRECTION('',(-1.,0.,0.));
#397=DIRECTION('',(0.,0.,-1.));
#398=DIRECTION('center_axis',(1.,0.,0.));
#399=DIRECTION('ref_axis',(0.,-1.,0.));
#400=DIRECTION('',(0.,1.,0.));
#401=DIRECTION('',(0.,-1.,0.));
#402=DIRECTION('',(0.,0.,-1.));
#403=DIRECTION('center_axis',(0.,1.,0.));
#404=DIRECTION('ref_axis',(1.,0.,0.));
#405=DIRECTION('',(-1.,0.,0.));
#406=DIRECTION('',(1.,0.,0.));
#407=DIRECTION('center_axis',(0.,0.,1.));
#408=DIRECTION('ref_axis',(1.,0.,0.));
#409=DIRECTION('center_axis',(0.,0.,-1.));
#410=DIRECTION('ref_axis',(1.,0.,0.));
#411=DIRECTION('',(0.,0.,-1.));
#412=DIRECTION('center_axis',(0.,0.,-1.));
#413=DIRECTION('ref_axis',(1.,0.,0.));
#414=DIRECTION('center_axis',(0.,0.,1.));
#415=DIRECTION('ref_axis',(1.,0.,0.));
#416=DIRECTION('center_axis',(0.,0.,-1.));
#417=DIRECTION('ref_axis',(1.,0.,0.));
#418=DIRECTION('',(0.,0.,-1.));
#419=DIRECTION('center_axis',(0.,0.,-1.));
#420=DIRECTION('ref_axis',(1.,0.,0.));
#421=DIRECTION('center_axis',(0.,0.,1.));
#422=DIRECTION('ref_axis',(1.,0.,0.));
#423=DIRECTION('center_axis',(0.,0.,-1.));
#424=DIRECTION('ref_axis',(1.,0.,0.));
#425=DIRECTION('',(0.,0.,-1.));
#426=DIRECTION('center_axis',(0.,0.,-1.));
#427=DIRECTION('ref_axis',(1.,0.,0.));
#428=DIRECTION('center_axis',(0.,-1.,0.));
#429=DIRECTION('ref_axis',(1.,0.,0.));
#430=DIRECTION('',(-1.,0.,0.));
#431=DIRECTION('',(0.,0.,1.));
#432=DIRECTION('',(1.,0.,0.));
#433=DIRECTION('',(0.,0.,1.));
#434=DIRECTION('center_axis',(-1.,0.,0.));
#435=DIRECTION('ref_axis',(0.,-1.,0.));
#436=DIRECTION('',(0.,1.,0.));
#437=DIRECTION('',(0.,-1.,0.));
#438=DIRECTION('',(0.,0.,1.));
#439=DIRECTION('center_axis',(0.,0.,1.));
#440=DIRECTION('ref_axis',(-0.0469483568083822,0.998897317942637,0.));
#441=DIRECTION('center_axis',(0.,0.,1.));
#442=DIRECTION('ref_axis',(-0.0469483568083822,0.998897317942637,0.));
#443=DIRECTION('center_axis',(0.,0.,1.));
#444=DIRECTION('ref_axis',(-0.0469483568083822,0.998897317942637,0.));
#445=DIRECTION('',(0.,0.,1.));
#446=DIRECTION('center_axis',(-1.,-4.35563821084045E-13,0.));
#447=DIRECTION('ref_axis',(4.35563821084045E-13,-1.,0.));
#448=DIRECTION('',(-4.35563821084045E-13,1.,0.));
#449=DIRECTION('',(4.35563821084045E-13,-1.,0.));
#450=DIRECTION('',(0.,0.,1.));
#451=DIRECTION('center_axis',(0.,1.,0.));
#452=DIRECTION('ref_axis',(-1.,0.,0.));
#453=DIRECTION('',(1.,0.,0.));
#454=DIRECTION('',(-1.,0.,0.));
#455=DIRECTION('',(0.,0.,1.));
#456=DIRECTION('center_axis',(1.,4.35563821085493E-13,0.));
#457=DIRECTION('ref_axis',(-4.35563821085493E-13,1.,0.));
#458=DIRECTION('',(4.35563821085493E-13,-1.,0.));
#459=DIRECTION('',(-4.35563821085493E-13,1.,0.));
#460=DIRECTION('',(0.,0.,1.));
#461=DIRECTION('center_axis',(0.,0.,1.));
#462=DIRECTION('ref_axis',(0.0352112676056338,-0.999379891049247,0.));
#463=DIRECTION('center_axis',(0.,0.,1.));
#464=DIRECTION('ref_axis',(0.0352112676056338,-0.999379891049247,0.));
#465=DIRECTION('center_axis',(0.,0.,1.));
#466=DIRECTION('ref_axis',(0.0352112676056338,-0.999379891049247,0.));
#467=DIRECTION('',(0.,0.,1.));
#468=DIRECTION('center_axis',(1.,0.,0.));
#469=DIRECTION('ref_axis',(0.,1.,0.));
#470=DIRECTION('',(0.,-1.,0.));
#471=DIRECTION('',(0.,1.,0.));
#472=DIRECTION('center_axis',(0.,0.,1.));
#473=DIRECTION('ref_axis',(1.,0.,0.));
#474=DIRECTION('center_axis',(0.,0.,1.));
#475=DIRECTION('ref_axis',(1.,0.,0.));
#476=CARTESIAN_POINT('',(0.,0.,0.));
#477=CARTESIAN_POINT('Origin',(18.,7.5,0.5));
#478=CARTESIAN_POINT('',(18.,25.7,0.));
#479=CARTESIAN_POINT('',(18.,7.5,0.));
#480=CARTESIAN_POINT('',(18.,3.75,0.));
#481=CARTESIAN_POINT('',(18.,25.7,0.5));
#482=CARTESIAN_POINT('',(18.,25.7,0.5));
#483=CARTESIAN_POINT('',(18.,7.5,0.5));
#484=CARTESIAN_POINT('',(18.,3.75,0.5));
#485=CARTESIAN_POINT('',(18.,7.5,0.5));
#486=CARTESIAN_POINT('Origin',(30.2,7.5,0.5));
#487=CARTESIAN_POINT('',(30.2,7.5,0.));
#488=CARTESIAN_POINT('',(15.1,7.5,0.));
#489=CARTESIAN_POINT('',(30.2,7.5,0.5));
#490=CARTESIAN_POINT('',(15.1,7.5,0.5));
#491=CARTESIAN_POINT('',(30.2,7.5,0.5));
#492=CARTESIAN_POINT('Origin',(30.2,25.7,0.5));
#493=CARTESIAN_POINT('',(30.2,25.7,0.));
#494=CARTESIAN_POINT('',(30.2,12.85,0.));
#495=CARTESIAN_POINT('',(30.2,25.7,0.5));
#496=CARTESIAN_POINT('',(30.2,12.85,0.5));
#497=CARTESIAN_POINT('',(30.2,25.7,0.5));
#498=CARTESIAN_POINT('Origin',(18.,25.7,0.5));
#499=CARTESIAN_POINT('',(9.,25.7,0.));
#500=CARTESIAN_POINT('',(9.,25.7,0.5));
#501=CARTESIAN_POINT('Origin',(-15.,0.,0.));
#502=CARTESIAN_POINT('',(-16.35,-1.65327317884893E-16,0.5));
#503=CARTESIAN_POINT('Origin',(-15.,0.,0.5));
#504=CARTESIAN_POINT('',(-16.35,-1.65327317884893E-16,0.));
#505=CARTESIAN_POINT('',(-16.35,-1.65327317884893E-16,0.));
#506=CARTESIAN_POINT('Origin',(-15.,0.,0.));
#507=CARTESIAN_POINT('Origin',(0.,0.,0.));
#508=CARTESIAN_POINT('',(-3.,-3.67394039744206E-16,0.5));
#509=CARTESIAN_POINT('Origin',(0.,0.,0.5));
#510=CARTESIAN_POINT('',(-3.,-3.67394039744206E-16,0.));
#511=CARTESIAN_POINT('',(-3.,-3.67394039744206E-16,0.));
#512=CARTESIAN_POINT('Origin',(0.,0.,0.));
#513=CARTESIAN_POINT('Origin',(15.,0.,0.));
#514=CARTESIAN_POINT('',(13.65,-1.65327317884893E-16,0.5));
#515=CARTESIAN_POINT('Origin',(15.,0.,0.5));
#516=CARTESIAN_POINT('',(13.65,-1.65327317884893E-16,0.));
#517=CARTESIAN_POINT('',(13.65,-1.65327317884893E-16,0.));
#518=CARTESIAN_POINT('Origin',(15.,0.,0.));
#519=CARTESIAN_POINT('Origin',(-2.,-43.6,0.));
#520=CARTESIAN_POINT('',(1.5,-43.6,0.));
#521=CARTESIAN_POINT('',(-2.,-43.6,0.));
#522=CARTESIAN_POINT('',(1.5,-43.6,0.));
#523=CARTESIAN_POINT('',(1.5,-43.6,0.5));
#524=CARTESIAN_POINT('',(1.5,-43.6,0.));
#525=CARTESIAN_POINT('',(-2.,-43.6,0.5));
#526=CARTESIAN_POINT('',(1.5,-43.6,0.5));
#527=CARTESIAN_POINT('',(-2.,-43.6,0.));
#528=CARTESIAN_POINT('Origin',(-2.,-42.5530257443581,0.));
#529=CARTESIAN_POINT('',(-1.99999999999989,-42.5530257443581,0.));
#530=CARTESIAN_POINT('',(-2.,-43.6,0.));
#531=CARTESIAN_POINT('',(-1.99999999999989,-42.5530257443581,0.5));
#532=CARTESIAN_POINT('',(-2.,-43.6,0.5));
#533=CARTESIAN_POINT('',(-1.99999999999989,-42.5530257443581,0.));
#534=CARTESIAN_POINT('Origin',(0.,0.,0.));
#535=CARTESIAN_POINT('',(-2.00000000003708,42.5530257443563,0.));
#536=CARTESIAN_POINT('Origin',(0.,0.,0.));
#537=CARTESIAN_POINT('',(-2.00000000003708,42.5530257443563,0.5));
#538=CARTESIAN_POINT('Origin',(0.,0.,0.5));
#539=CARTESIAN_POINT('',(-2.00000000003708,42.5530257443563,0.));
#540=CARTESIAN_POINT('Origin',(-2.00000000003754,43.6,0.));
#541=CARTESIAN_POINT('',(-2.00000000003754,43.6,0.));
#542=CARTESIAN_POINT('',(-2.00000000003708,42.5530257443563,0.));
#543=CARTESIAN_POINT('',(-2.00000000003754,43.6,0.5));
#544=CARTESIAN_POINT('',(-2.00000000003708,42.5530257443563,0.5));
#545=CARTESIAN_POINT('',(-2.00000000003754,43.6,0.));
#546=CARTESIAN_POINT('Origin',(1.99999999996246,43.6,0.));
#547=CARTESIAN_POINT('',(1.99999999996246,43.6,0.));
#548=CARTESIAN_POINT('',(-2.00000000003754,43.6,0.));
#549=CARTESIAN_POINT('',(1.99999999996246,43.6,0.5));
#550=CARTESIAN_POINT('',(-2.00000000003754,43.6,0.5));
#551=CARTESIAN_POINT('',(1.99999999996246,43.6,0.));
#552=CARTESIAN_POINT('Origin',(1.99999999996292,42.5530257443598,0.));
#553=CARTESIAN_POINT('',(1.99999999996285,42.5530257443598,0.));
#554=CARTESIAN_POINT('',(1.99999999996246,43.6,0.));
#555=CARTESIAN_POINT('',(1.99999999996285,42.5530257443598,0.5));
#556=CARTESIAN_POINT('',(1.99999999996246,43.6,0.5));
#557=CARTESIAN_POINT('',(1.99999999996285,42.5530257443598,0.));
#558=CARTESIAN_POINT('Origin',(0.,0.,0.));
#559=CARTESIAN_POINT('',(1.5,-42.5735833586979,0.));
#560=CARTESIAN_POINT('Origin',(0.,0.,0.));
#561=CARTESIAN_POINT('',(1.5,-42.5735833586979,0.5));
#562=CARTESIAN_POINT('Origin',(0.,0.,0.5));
#563=CARTESIAN_POINT('',(1.5,-42.5735833586979,0.));
#564=CARTESIAN_POINT('Origin',(1.5,-43.6,0.));
#565=CARTESIAN_POINT('',(1.5,-42.5735833586979,0.));
#566=CARTESIAN_POINT('',(1.5,-42.5735833586979,0.5));
#567=CARTESIAN_POINT('Origin',(0.,0.,0.5));
#568=CARTESIAN_POINT('Origin',(0.,0.,0.));
#569=UNCERTAINTY_MEASURE_WITH_UNIT(LENGTH_MEASURE(0.01),#573,
'DISTANCE_ACCURACY_VALUE',
'Maximum model space distance between geometric entities at asserted c
onnectivities');
#570=UNCERTAINTY_MEASURE_WITH_UNIT(LENGTH_MEASURE(0.01),#573,
'DISTANCE_ACCURACY_VALUE',
'Maximum model space distance between geometric entities at asserted c
onnectivities');
#571=(
GEOMETRIC_REPRESENTATION_CONTEXT(3)
GLOBAL_UNCERTAINTY_ASSIGNED_CONTEXT((#569))
GLOBAL_UNIT_ASSIGNED_CONTEXT((#573,#575,#576))
REPRESENTATION_CONTEXT('','3D')
);
#572=(
GEOMETRIC_REPRESENTATION_CONTEXT(3)
GLOBAL_UNCERTAINTY_ASSIGNED_CONTEXT((#570))
GLOBAL_UNIT_ASSIGNED_CONTEXT((#573,#575,#576))
REPRESENTATION_CONTEXT('','3D')
);
#573=(
LENGTH_UNIT()
NAMED_UNIT(*)
SI_UNIT(.MILLI.,.METRE.)
);
#574=(
LENGTH_UNIT()
NAMED_UNIT(*)
SI_UNIT($,.METRE.)
);
#575=(
NAMED_UNIT(*)
PLANE_ANGLE_UNIT()
SI_UNIT($,.RADIAN.)
);
#576=(
NAMED_UNIT(*)
SI_UNIT($,.STERADIAN.)
SOLID_ANGLE_UNIT()
);
#577=SHAPE_DEFINITION_REPRESENTATION(#578,#579);
#578=PRODUCT_DEFINITION_SHAPE('',$,#581);
#579=SHAPE_REPRESENTATION('',(#357),#571);
#580=PRODUCT_DEFINITION_CONTEXT('part definition',#585,'design');
#581=PRODUCT_DEFINITION('MV-PLAQUE COMPTEUR avec IRE',
'MV-PLAQUE COMPTEUR avec IRE v1',#582,#580);
#582=PRODUCT_DEFINITION_FORMATION('',$,#587);
#583=PRODUCT_RELATED_PRODUCT_CATEGORY('MV-PLAQUE COMPTEUR avec IRE v1',
'MV-PLAQUE COMPTEUR avec IRE v1',(#587));
#584=APPLICATION_PROTOCOL_DEFINITION('international standard',
'automotive_design',2009,#585);
#585=APPLICATION_CONTEXT(
'Core Data for Automotive Mechanical Design Process');
#586=PRODUCT_CONTEXT('part definition',#585,'mechanical');
#587=PRODUCT('MV-PLAQUE COMPTEUR avec IRE',
'MV-PLAQUE COMPTEUR avec IRE v1',$,(#586));
#588=PRESENTATION_STYLE_ASSIGNMENT((#589));
#589=SURFACE_STYLE_USAGE(.BOTH.,#590);
#590=SURFACE_SIDE_STYLE('',(#591));
#591=SURFACE_STYLE_FILL_AREA(#592);
#592=FILL_AREA_STYLE('Acier - Satin\X\E9',(#593));
#593=FILL_AREA_STYLE_COLOUR('Acier - Satin\X\E9',#594);
#594=COLOUR_RGB('Acier - Satin\X\E9',0.627450980392157,0.627450980392157,
0.627450980392157);
ENDSEC;
END-ISO-10303-21;
