ISO-10303-21;
HEADER;
/* Generated by software containing ST-Developer
 * from STEP Tools, Inc. (www.steptools.com) 
 */

FILE_DESCRIPTION(
/* description */ (''),
/* implementation_level */ '2;1');

FILE_NAME(
/* name */ 
'C:/Users/Philippe/Desktop/MOBICO/Client/Deegle/Devis/Laser-final/Fuse
e-AV-direction.step',
/* time_stamp */ '2022-08-17T09:23:06+02:00',
/* author */ (''),
/* organization */ (''),
/* preprocessor_version */ 'ST-DEVELOPER v19',
/* originating_system */ 'Autodesk Translation Framework v11.7.0.108',
/* authorisation */ '');

FILE_SCHEMA (('AUTOMOTIVE_DESIGN { 1 0 10303 214 3 1 1 }'));
ENDSEC;

DATA;
#10=MECHANICAL_DESIGN_GEOMETRIC_PRESENTATION_REPRESENTATION('',(#13),#323);
#11=SHAPE_REPRESENTATION_RELATIONSHIP('SRR','None',#330,#12);
#12=ADVANCED_BREP_SHAPE_REPRESENTATION('',(#14),#322);
#13=STYLED_ITEM('',(#340),#14);
#14=MANIFOLD_SOLID_BREP('Corps1',#191);
#15=FACE_BOUND('',#39,.T.);
#16=FACE_BOUND('',#42,.T.);
#17=CIRCLE('',#208,5.);
#18=CIRCLE('',#209,5.);
#19=CIRCLE('',#212,15.);
#20=CIRCLE('',#213,15.);
#21=CYLINDRICAL_SURFACE('',#207,5.);
#22=CYLINDRICAL_SURFACE('',#211,15.);
#23=FACE_OUTER_BOUND('',#33,.T.);
#24=FACE_OUTER_BOUND('',#34,.T.);
#25=FACE_OUTER_BOUND('',#35,.T.);
#26=FACE_OUTER_BOUND('',#36,.T.);
#27=FACE_OUTER_BOUND('',#37,.T.);
#28=FACE_OUTER_BOUND('',#38,.T.);
#29=FACE_OUTER_BOUND('',#40,.T.);
#30=FACE_OUTER_BOUND('',#41,.T.);
#31=FACE_OUTER_BOUND('',#43,.T.);
#32=FACE_OUTER_BOUND('',#44,.T.);
#33=EDGE_LOOP('',(#125,#126,#127,#128));
#34=EDGE_LOOP('',(#129,#130,#131,#132));
#35=EDGE_LOOP('',(#133,#134,#135,#136));
#36=EDGE_LOOP('',(#137,#138,#139,#140));
#37=EDGE_LOOP('',(#141,#142,#143,#144));
#38=EDGE_LOOP('',(#145,#146,#147,#148,#149,#150,#151));
#39=EDGE_LOOP('',(#152));
#40=EDGE_LOOP('',(#153,#154,#155,#156));
#41=EDGE_LOOP('',(#157,#158,#159,#160,#161,#162,#163));
#42=EDGE_LOOP('',(#164));
#43=EDGE_LOOP('',(#165,#166,#167,#168));
#44=EDGE_LOOP('',(#169,#170,#171,#172));
#45=LINE('',#273,#65);
#46=LINE('',#275,#66);
#47=LINE('',#277,#67);
#48=LINE('',#278,#68);
#49=LINE('',#281,#69);
#50=LINE('',#283,#70);
#51=LINE('',#284,#71);
#52=LINE('',#289,#72);
#53=LINE('',#294,#73);
#54=LINE('',#296,#74);
#55=LINE('',#298,#75);
#56=LINE('',#299,#76);
#57=LINE('',#305,#77);
#58=LINE('',#308,#78);
#59=LINE('',#309,#79);
#60=LINE('',#310,#80);
#61=LINE('',#312,#81);
#62=LINE('',#315,#82);
#63=LINE('',#316,#83);
#64=LINE('',#318,#84);
#65=VECTOR('',#223,10.);
#66=VECTOR('',#224,10.);
#67=VECTOR('',#225,10.);
#68=VECTOR('',#226,10.);
#69=VECTOR('',#229,10.);
#70=VECTOR('',#230,10.);
#71=VECTOR('',#231,10.);
#72=VECTOR('',#236,5.);
#73=VECTOR('',#241,10.);
#74=VECTOR('',#242,10.);
#75=VECTOR('',#243,10.);
#76=VECTOR('',#244,10.);
#77=VECTOR('',#251,10.);
#78=VECTOR('',#254,10.);
#79=VECTOR('',#255,10.);
#80=VECTOR('',#256,10.);
#81=VECTOR('',#259,10.);
#82=VECTOR('',#262,10.);
#83=VECTOR('',#263,10.);
#84=VECTOR('',#266,10.);
#85=VERTEX_POINT('',#271);
#86=VERTEX_POINT('',#272);
#87=VERTEX_POINT('',#274);
#88=VERTEX_POINT('',#276);
#89=VERTEX_POINT('',#280);
#90=VERTEX_POINT('',#282);
#91=VERTEX_POINT('',#286);
#92=VERTEX_POINT('',#288);
#93=VERTEX_POINT('',#292);
#94=VERTEX_POINT('',#293);
#95=VERTEX_POINT('',#295);
#96=VERTEX_POINT('',#297);
#97=VERTEX_POINT('',#301);
#98=VERTEX_POINT('',#303);
#99=VERTEX_POINT('',#307);
#100=VERTEX_POINT('',#314);
#101=EDGE_CURVE('',#85,#86,#45,.T.);
#102=EDGE_CURVE('',#87,#85,#46,.T.);
#103=EDGE_CURVE('',#88,#87,#47,.T.);
#104=EDGE_CURVE('',#86,#88,#48,.T.);
#105=EDGE_CURVE('',#89,#85,#49,.T.);
#106=EDGE_CURVE('',#90,#89,#50,.T.);
#107=EDGE_CURVE('',#90,#87,#51,.T.);
#108=EDGE_CURVE('',#91,#91,#17,.T.);
#109=EDGE_CURVE('',#91,#92,#52,.T.);
#110=EDGE_CURVE('',#92,#92,#18,.T.);
#111=EDGE_CURVE('',#93,#94,#53,.T.);
#112=EDGE_CURVE('',#93,#95,#54,.T.);
#113=EDGE_CURVE('',#96,#95,#55,.T.);
#114=EDGE_CURVE('',#96,#94,#56,.T.);
#115=EDGE_CURVE('',#97,#96,#19,.T.);
#116=EDGE_CURVE('',#95,#98,#20,.T.);
#117=EDGE_CURVE('',#98,#97,#57,.T.);
#118=EDGE_CURVE('',#99,#88,#58,.T.);
#119=EDGE_CURVE('',#94,#90,#59,.T.);
#120=EDGE_CURVE('',#97,#99,#60,.T.);
#121=EDGE_CURVE('',#89,#93,#61,.T.);
#122=EDGE_CURVE('',#100,#86,#62,.T.);
#123=EDGE_CURVE('',#100,#98,#63,.T.);
#124=EDGE_CURVE('',#100,#99,#64,.T.);
#125=ORIENTED_EDGE('',*,*,#101,.F.);
#126=ORIENTED_EDGE('',*,*,#102,.F.);
#127=ORIENTED_EDGE('',*,*,#103,.F.);
#128=ORIENTED_EDGE('',*,*,#104,.F.);
#129=ORIENTED_EDGE('',*,*,#102,.T.);
#130=ORIENTED_EDGE('',*,*,#105,.F.);
#131=ORIENTED_EDGE('',*,*,#106,.F.);
#132=ORIENTED_EDGE('',*,*,#107,.T.);
#133=ORIENTED_EDGE('',*,*,#108,.F.);
#134=ORIENTED_EDGE('',*,*,#109,.T.);
#135=ORIENTED_EDGE('',*,*,#110,.F.);
#136=ORIENTED_EDGE('',*,*,#109,.F.);
#137=ORIENTED_EDGE('',*,*,#111,.F.);
#138=ORIENTED_EDGE('',*,*,#112,.T.);
#139=ORIENTED_EDGE('',*,*,#113,.F.);
#140=ORIENTED_EDGE('',*,*,#114,.T.);
#141=ORIENTED_EDGE('',*,*,#115,.T.);
#142=ORIENTED_EDGE('',*,*,#113,.T.);
#143=ORIENTED_EDGE('',*,*,#116,.T.);
#144=ORIENTED_EDGE('',*,*,#117,.T.);
#145=ORIENTED_EDGE('',*,*,#118,.T.);
#146=ORIENTED_EDGE('',*,*,#103,.T.);
#147=ORIENTED_EDGE('',*,*,#107,.F.);
#148=ORIENTED_EDGE('',*,*,#119,.F.);
#149=ORIENTED_EDGE('',*,*,#114,.F.);
#150=ORIENTED_EDGE('',*,*,#115,.F.);
#151=ORIENTED_EDGE('',*,*,#120,.T.);
#152=ORIENTED_EDGE('',*,*,#108,.T.);
#153=ORIENTED_EDGE('',*,*,#121,.T.);
#154=ORIENTED_EDGE('',*,*,#111,.T.);
#155=ORIENTED_EDGE('',*,*,#119,.T.);
#156=ORIENTED_EDGE('',*,*,#106,.T.);
#157=ORIENTED_EDGE('',*,*,#101,.T.);
#158=ORIENTED_EDGE('',*,*,#122,.F.);
#159=ORIENTED_EDGE('',*,*,#123,.T.);
#160=ORIENTED_EDGE('',*,*,#116,.F.);
#161=ORIENTED_EDGE('',*,*,#112,.F.);
#162=ORIENTED_EDGE('',*,*,#121,.F.);
#163=ORIENTED_EDGE('',*,*,#105,.T.);
#164=ORIENTED_EDGE('',*,*,#110,.T.);
#165=ORIENTED_EDGE('',*,*,#124,.T.);
#166=ORIENTED_EDGE('',*,*,#120,.F.);
#167=ORIENTED_EDGE('',*,*,#117,.F.);
#168=ORIENTED_EDGE('',*,*,#123,.F.);
#169=ORIENTED_EDGE('',*,*,#104,.T.);
#170=ORIENTED_EDGE('',*,*,#118,.F.);
#171=ORIENTED_EDGE('',*,*,#124,.F.);
#172=ORIENTED_EDGE('',*,*,#122,.T.);
#173=PLANE('',#205);
#174=PLANE('',#206);
#175=PLANE('',#210);
#176=PLANE('',#214);
#177=PLANE('',#215);
#178=PLANE('',#216);
#179=PLANE('',#217);
#180=PLANE('',#218);
#181=ADVANCED_FACE('',(#23),#173,.F.);
#182=ADVANCED_FACE('',(#24),#174,.T.);
#183=ADVANCED_FACE('',(#25),#21,.F.);
#184=ADVANCED_FACE('',(#26),#175,.T.);
#185=ADVANCED_FACE('',(#27),#22,.T.);
#186=ADVANCED_FACE('',(#28,#15),#176,.T.);
#187=ADVANCED_FACE('',(#29),#177,.T.);
#188=ADVANCED_FACE('',(#30,#16),#178,.T.);
#189=ADVANCED_FACE('',(#31),#179,.F.);
#190=ADVANCED_FACE('',(#32),#180,.F.);
#191=CLOSED_SHELL('',(#181,#182,#183,#184,#185,#186,#187,#188,#189,#190));
#192=DERIVED_UNIT_ELEMENT(#194,1.);
#193=DERIVED_UNIT_ELEMENT(#325,-3.);
#194=(
MASS_UNIT()
NAMED_UNIT(*)
SI_UNIT(.KILO.,.GRAM.)
);
#195=DERIVED_UNIT((#192,#193));
#196=MEASURE_REPRESENTATION_ITEM('density measure',
POSITIVE_RATIO_MEASURE(7850.),#195);
#197=PROPERTY_DEFINITION_REPRESENTATION(#202,#199);
#198=PROPERTY_DEFINITION_REPRESENTATION(#203,#200);
#199=REPRESENTATION('material name',(#201),#322);
#200=REPRESENTATION('density',(#196),#322);
#201=DESCRIPTIVE_REPRESENTATION_ITEM('Acier','Acier');
#202=PROPERTY_DEFINITION('material property','material name',#332);
#203=PROPERTY_DEFINITION('material property','density of part',#332);
#204=AXIS2_PLACEMENT_3D('placement',#269,#219,#220);
#205=AXIS2_PLACEMENT_3D('',#270,#221,#222);
#206=AXIS2_PLACEMENT_3D('',#279,#227,#228);
#207=AXIS2_PLACEMENT_3D('',#285,#232,#233);
#208=AXIS2_PLACEMENT_3D('',#287,#234,#235);
#209=AXIS2_PLACEMENT_3D('',#290,#237,#238);
#210=AXIS2_PLACEMENT_3D('',#291,#239,#240);
#211=AXIS2_PLACEMENT_3D('',#300,#245,#246);
#212=AXIS2_PLACEMENT_3D('',#302,#247,#248);
#213=AXIS2_PLACEMENT_3D('',#304,#249,#250);
#214=AXIS2_PLACEMENT_3D('',#306,#252,#253);
#215=AXIS2_PLACEMENT_3D('',#311,#257,#258);
#216=AXIS2_PLACEMENT_3D('',#313,#260,#261);
#217=AXIS2_PLACEMENT_3D('',#317,#264,#265);
#218=AXIS2_PLACEMENT_3D('',#319,#267,#268);
#219=DIRECTION('axis',(0.,0.,1.));
#220=DIRECTION('refdir',(1.,0.,0.));
#221=DIRECTION('center_axis',(0.,-1.,0.));
#222=DIRECTION('ref_axis',(0.,0.,-1.));
#223=DIRECTION('',(-1.,0.,0.));
#224=DIRECTION('',(1.59511994498345E-14,0.,1.));
#225=DIRECTION('',(1.,0.,0.));
#226=DIRECTION('',(0.,0.,-1.));
#227=DIRECTION('center_axis',(1.,0.,-1.59511994498345E-14));
#228=DIRECTION('ref_axis',(-1.59511994498345E-14,0.,-1.));
#229=DIRECTION('',(7.40148683083438E-17,1.,0.));
#230=DIRECTION('',(0.,0.,1.));
#231=DIRECTION('',(7.40148683083438E-17,1.,0.));
#232=DIRECTION('center_axis',(0.,0.,1.));
#233=DIRECTION('ref_axis',(1.,0.,0.));
#234=DIRECTION('center_axis',(0.,0.,1.));
#235=DIRECTION('ref_axis',(1.,0.,0.));
#236=DIRECTION('',(0.,0.,1.));
#237=DIRECTION('center_axis',(0.,0.,-1.));
#238=DIRECTION('ref_axis',(1.,0.,0.));
#239=DIRECTION('center_axis',(1.,0.,0.));
#240=DIRECTION('ref_axis',(0.,0.,-1.));
#241=DIRECTION('',(0.,0.,-1.));
#242=DIRECTION('',(0.,-1.,0.));
#243=DIRECTION('',(0.,0.,1.));
#244=DIRECTION('',(0.,1.,0.));
#245=DIRECTION('center_axis',(0.,0.,-1.));
#246=DIRECTION('ref_axis',(0.707106781186547,-0.707106781186547,0.));
#247=DIRECTION('center_axis',(0.,0.,1.));
#248=DIRECTION('ref_axis',(0.707106781186547,-0.707106781186547,0.));
#249=DIRECTION('center_axis',(0.,0.,-1.));
#250=DIRECTION('ref_axis',(0.707106781186547,-0.707106781186547,0.));
#251=DIRECTION('',(0.,0.,-1.));
#252=DIRECTION('center_axis',(0.,0.,-1.));
#253=DIRECTION('ref_axis',(-1.,0.,0.));
#254=DIRECTION('',(0.,1.,0.));
#255=DIRECTION('',(-0.707106781186547,0.707106781186548,0.));
#256=DIRECTION('',(-1.,0.,0.));
#257=DIRECTION('center_axis',(0.707106781186548,0.707106781186547,0.));
#258=DIRECTION('ref_axis',(0.,0.,-1.));
#259=DIRECTION('',(0.707106781186547,-0.707106781186548,0.));
#260=DIRECTION('center_axis',(0.,0.,1.));
#261=DIRECTION('ref_axis',(1.,0.,0.));
#262=DIRECTION('',(0.,1.,0.));
#263=DIRECTION('',(1.,0.,0.));
#264=DIRECTION('center_axis',(0.,1.,0.));
#265=DIRECTION('ref_axis',(-1.,0.,0.));
#266=DIRECTION('',(0.,0.,-1.));
#267=DIRECTION('center_axis',(1.,0.,0.));
#268=DIRECTION('ref_axis',(0.,0.,-1.));
#269=CARTESIAN_POINT('',(0.,0.,0.));
#270=CARTESIAN_POINT('Origin',(-2.50000000000008,20.,0.));
#271=CARTESIAN_POINT('',(-8.43769498715119E-14,20.,48.));
#272=CARTESIAN_POINT('',(-25.0000000000002,20.,48.));
#273=CARTESIAN_POINT('',(-21.25,20.,48.));
#274=CARTESIAN_POINT('',(-8.43769498715119E-14,20.,43.));
#275=CARTESIAN_POINT('',(-7.08461067588928E-13,20.,44.));
#276=CARTESIAN_POINT('',(-25.0000000000002,20.,43.));
#277=CARTESIAN_POINT('',(3.74999999999996,20.,43.));
#278=CARTESIAN_POINT('',(-25.,20.,4.44089209850063E-15));
#279=CARTESIAN_POINT('Origin',(-6.64283443067385E-15,0.,88.));
#280=CARTESIAN_POINT('',(-8.88178419700125E-15,-25.,48.));
#281=CARTESIAN_POINT('',(-8.88178419700125E-15,-25.,48.));
#282=CARTESIAN_POINT('',(-7.21644966006352E-15,-25.,43.));
#283=CARTESIAN_POINT('',(-7.40148683083438E-15,-25.,45.5));
#284=CARTESIAN_POINT('',(-7.21644966006352E-15,-25.,43.));
#285=CARTESIAN_POINT('Origin',(5.,-50.,0.));
#286=CARTESIAN_POINT('',(-4.44089209850063E-15,-50.,43.));
#287=CARTESIAN_POINT('Origin',(5.,-50.,43.));
#288=CARTESIAN_POINT('',(-4.44089209850063E-15,-50.,48.));
#289=CARTESIAN_POINT('',(-4.44089209850063E-15,-50.,0.));
#290=CARTESIAN_POINT('Origin',(5.,-50.,48.));
#291=CARTESIAN_POINT('Origin',(20.,0.,48.));
#292=CARTESIAN_POINT('',(20.,-45.,48.));
#293=CARTESIAN_POINT('',(20.,-45.,43.));
#294=CARTESIAN_POINT('',(20.,-45.,45.5));
#295=CARTESIAN_POINT('',(20.,-50.,48.));
#296=CARTESIAN_POINT('',(20.,0.,48.));
#297=CARTESIAN_POINT('',(20.,-50.,43.));
#298=CARTESIAN_POINT('',(20.,-50.,45.5));
#299=CARTESIAN_POINT('',(20.,0.,43.));
#300=CARTESIAN_POINT('Origin',(4.99999999999999,-50.,45.5));
#301=CARTESIAN_POINT('',(4.99999999999999,-65.,43.));
#302=CARTESIAN_POINT('Origin',(4.99999999999999,-50.,43.));
#303=CARTESIAN_POINT('',(4.99999999999999,-65.,48.));
#304=CARTESIAN_POINT('Origin',(4.99999999999999,-50.,48.));
#305=CARTESIAN_POINT('',(4.99999999999999,-65.,45.5));
#306=CARTESIAN_POINT('Origin',(20.,0.,43.));
#307=CARTESIAN_POINT('',(-25.,-65.,43.));
#308=CARTESIAN_POINT('',(-25.,-10.,43.));
#309=CARTESIAN_POINT('',(3.74999999999999,-28.75,43.));
#310=CARTESIAN_POINT('',(20.,-65.,43.));
#311=CARTESIAN_POINT('Origin',(9.99999999999999,-35.,45.5));
#312=CARTESIAN_POINT('',(-8.75,-16.25,48.));
#313=CARTESIAN_POINT('Origin',(-30.,0.,48.));
#314=CARTESIAN_POINT('',(-25.,-65.,48.));
#315=CARTESIAN_POINT('',(-25.,-12.5,48.));
#316=CARTESIAN_POINT('',(-5.00000000000001,-65.,48.));
#317=CARTESIAN_POINT('Origin',(20.,-65.,43.));
#318=CARTESIAN_POINT('',(-25.,-65.,21.5));
#319=CARTESIAN_POINT('Origin',(-25.,-20.,8.88178419700125E-15));
#320=UNCERTAINTY_MEASURE_WITH_UNIT(LENGTH_MEASURE(0.01),#324,
'DISTANCE_ACCURACY_VALUE',
'Maximum model space distance between geometric entities at asserted c
onnectivities');
#321=UNCERTAINTY_MEASURE_WITH_UNIT(LENGTH_MEASURE(0.01),#324,
'DISTANCE_ACCURACY_VALUE',
'Maximum model space distance between geometric entities at asserted c
onnectivities');
#322=(
GEOMETRIC_REPRESENTATION_CONTEXT(3)
GLOBAL_UNCERTAINTY_ASSIGNED_CONTEXT((#320))
GLOBAL_UNIT_ASSIGNED_CONTEXT((#324,#326,#327))
REPRESENTATION_CONTEXT('','3D')
);
#323=(
GEOMETRIC_REPRESENTATION_CONTEXT(3)
GLOBAL_UNCERTAINTY_ASSIGNED_CONTEXT((#321))
GLOBAL_UNIT_ASSIGNED_CONTEXT((#324,#326,#327))
REPRESENTATION_CONTEXT('','3D')
);
#324=(
LENGTH_UNIT()
NAMED_UNIT(*)
SI_UNIT(.MILLI.,.METRE.)
);
#325=(
LENGTH_UNIT()
NAMED_UNIT(*)
SI_UNIT($,.METRE.)
);
#326=(
NAMED_UNIT(*)
PLANE_ANGLE_UNIT()
SI_UNIT($,.RADIAN.)
);
#327=(
NAMED_UNIT(*)
SI_UNIT($,.STERADIAN.)
SOLID_ANGLE_UNIT()
);
#328=SHAPE_DEFINITION_REPRESENTATION(#329,#330);
#329=PRODUCT_DEFINITION_SHAPE('',$,#332);
#330=SHAPE_REPRESENTATION('',(#204),#322);
#331=PRODUCT_DEFINITION_CONTEXT('part definition',#336,'design');
#332=PRODUCT_DEFINITION('FusionComponent','FusionComponent',#333,#331);
#333=PRODUCT_DEFINITION_FORMATION('',$,#338);
#334=PRODUCT_RELATED_PRODUCT_CATEGORY('FusionComponent',
'FusionComponent',(#338));
#335=APPLICATION_PROTOCOL_DEFINITION('international standard',
'automotive_design',2009,#336);
#336=APPLICATION_CONTEXT(
'Core Data for Automotive Mechanical Design Process');
#337=PRODUCT_CONTEXT('part definition',#336,'mechanical');
#338=PRODUCT('FusionComponent','FusionComponent',$,(#337));
#339=PRESENTATION_STYLE_ASSIGNMENT((#341));
#340=PRESENTATION_STYLE_ASSIGNMENT((#342));
#341=SURFACE_STYLE_USAGE(.BOTH.,#343);
#342=SURFACE_STYLE_USAGE(.BOTH.,#344);
#343=SURFACE_SIDE_STYLE('',(#345));
#344=SURFACE_SIDE_STYLE('',(#346));
#345=SURFACE_STYLE_FILL_AREA(#347);
#346=SURFACE_STYLE_FILL_AREA(#348);
#347=FILL_AREA_STYLE('Acier - Satin\X\E9',(#349));
#348=FILL_AREA_STYLE('Aluminium - Satin\X\E9',(#350));
#349=FILL_AREA_STYLE_COLOUR('Acier - Satin\X\E9',#351);
#350=FILL_AREA_STYLE_COLOUR('Aluminium - Satin\X\E9',#352);
#351=COLOUR_RGB('Acier - Satin\X\E9',0.627450980392157,0.627450980392157,
0.627450980392157);
#352=COLOUR_RGB('Aluminium - Satin\X\E9',0.96078431372549,0.96078431372549,
0.964705882352941);
ENDSEC;
END-ISO-10303-21;
