ISO-10303-21;
HEADER;
/* Generated by software containing ST-Developer
 * from STEP Tools, Inc. (www.steptools.com) 
 */

FILE_DESCRIPTION(
/* description */ (''),
/* implementation_level */ '2;1');

FILE_NAME(
/* name */ 
'C:/Users/Philippe/Desktop/MOBICO/Client/Deegle/Devis/Laser-final/Chas
sis-fix-douille-bas.step',
/* time_stamp */ '2022-08-17T10:59:54+02:00',
/* author */ (''),
/* organization */ (''),
/* preprocessor_version */ 'ST-DEVELOPER v19',
/* originating_system */ 'Autodesk Translation Framework v11.7.0.108',
/* authorisation */ '');

FILE_SCHEMA (('AUTOMOTIVE_DESIGN { 1 0 10303 214 3 1 1 }'));
ENDSEC;

DATA;
#10=MECHANICAL_DESIGN_GEOMETRIC_PRESENTATION_REPRESENTATION('',(#13),#263);
#11=SHAPE_REPRESENTATION_RELATIONSHIP('SRR','None',#270,#12);
#12=ADVANCED_BREP_SHAPE_REPRESENTATION('',(#14),#262);
#13=STYLED_ITEM('',(#280),#14);
#14=MANIFOLD_SOLID_BREP('Corps1',#151);
#15=CYLINDRICAL_SURFACE('',#176,5.);
#16=CYLINDRICAL_SURFACE('',#177,5.);
#17=CYLINDRICAL_SURFACE('',#178,19.);
#18=FACE_BOUND('',#31,.T.);
#19=FACE_BOUND('',#32,.T.);
#20=FACE_BOUND('',#34,.T.);
#21=FACE_BOUND('',#35,.T.);
#22=FACE_OUTER_BOUND('',#30,.T.);
#23=FACE_OUTER_BOUND('',#33,.T.);
#24=FACE_OUTER_BOUND('',#36,.T.);
#25=FACE_OUTER_BOUND('',#37,.T.);
#26=FACE_OUTER_BOUND('',#38,.T.);
#27=FACE_OUTER_BOUND('',#39,.T.);
#28=FACE_OUTER_BOUND('',#40,.T.);
#29=FACE_OUTER_BOUND('',#41,.T.);
#30=EDGE_LOOP('',(#102,#103,#104,#105));
#31=EDGE_LOOP('',(#106));
#32=EDGE_LOOP('',(#107));
#33=EDGE_LOOP('',(#108,#109,#110,#111));
#34=EDGE_LOOP('',(#112));
#35=EDGE_LOOP('',(#113));
#36=EDGE_LOOP('',(#114,#115,#116,#117));
#37=EDGE_LOOP('',(#118,#119,#120,#121));
#38=EDGE_LOOP('',(#122,#123,#124,#125));
#39=EDGE_LOOP('',(#126,#127,#128,#129));
#40=EDGE_LOOP('',(#130,#131,#132,#133));
#41=EDGE_LOOP('',(#134,#135,#136,#137));
#42=LINE('',#227,#54);
#43=LINE('',#229,#55);
#44=LINE('',#230,#56);
#45=LINE('',#240,#57);
#46=LINE('',#242,#58);
#47=LINE('',#243,#59);
#48=LINE('',#249,#60);
#49=LINE('',#250,#61);
#50=LINE('',#252,#62);
#51=LINE('',#254,#63);
#52=LINE('',#256,#64);
#53=LINE('',#258,#65);
#54=VECTOR('',#185,10.);
#55=VECTOR('',#186,10.);
#56=VECTOR('',#187,10.);
#57=VECTOR('',#196,10.);
#58=VECTOR('',#197,10.);
#59=VECTOR('',#198,10.);
#60=VECTOR('',#205,10.);
#61=VECTOR('',#206,10.);
#62=VECTOR('',#209,10.);
#63=VECTOR('',#212,10.);
#64=VECTOR('',#215,5.);
#65=VECTOR('',#218,5.);
#66=CIRCLE('',#166,19.);
#67=CIRCLE('',#167,5.);
#68=CIRCLE('',#168,5.);
#69=CIRCLE('',#170,19.);
#70=CIRCLE('',#171,5.);
#71=CIRCLE('',#172,5.);
#72=VERTEX_POINT('',#223);
#73=VERTEX_POINT('',#224);
#74=VERTEX_POINT('',#226);
#75=VERTEX_POINT('',#228);
#76=VERTEX_POINT('',#231);
#77=VERTEX_POINT('',#233);
#78=VERTEX_POINT('',#236);
#79=VERTEX_POINT('',#237);
#80=VERTEX_POINT('',#239);
#81=VERTEX_POINT('',#241);
#82=VERTEX_POINT('',#244);
#83=VERTEX_POINT('',#246);
#84=EDGE_CURVE('',#72,#73,#66,.T.);
#85=EDGE_CURVE('',#72,#74,#42,.T.);
#86=EDGE_CURVE('',#74,#75,#43,.T.);
#87=EDGE_CURVE('',#75,#73,#44,.T.);
#88=EDGE_CURVE('',#76,#76,#67,.T.);
#89=EDGE_CURVE('',#77,#77,#68,.T.);
#90=EDGE_CURVE('',#78,#79,#69,.T.);
#91=EDGE_CURVE('',#78,#80,#45,.T.);
#92=EDGE_CURVE('',#80,#81,#46,.T.);
#93=EDGE_CURVE('',#81,#79,#47,.T.);
#94=EDGE_CURVE('',#82,#82,#70,.T.);
#95=EDGE_CURVE('',#83,#83,#71,.T.);
#96=EDGE_CURVE('',#81,#74,#48,.T.);
#97=EDGE_CURVE('',#79,#72,#49,.T.);
#98=EDGE_CURVE('',#80,#75,#50,.T.);
#99=EDGE_CURVE('',#73,#78,#51,.T.);
#100=EDGE_CURVE('',#76,#82,#52,.T.);
#101=EDGE_CURVE('',#77,#83,#53,.T.);
#102=ORIENTED_EDGE('',*,*,#84,.F.);
#103=ORIENTED_EDGE('',*,*,#85,.T.);
#104=ORIENTED_EDGE('',*,*,#86,.T.);
#105=ORIENTED_EDGE('',*,*,#87,.T.);
#106=ORIENTED_EDGE('',*,*,#88,.T.);
#107=ORIENTED_EDGE('',*,*,#89,.T.);
#108=ORIENTED_EDGE('',*,*,#90,.F.);
#109=ORIENTED_EDGE('',*,*,#91,.T.);
#110=ORIENTED_EDGE('',*,*,#92,.T.);
#111=ORIENTED_EDGE('',*,*,#93,.T.);
#112=ORIENTED_EDGE('',*,*,#94,.T.);
#113=ORIENTED_EDGE('',*,*,#95,.T.);
#114=ORIENTED_EDGE('',*,*,#93,.F.);
#115=ORIENTED_EDGE('',*,*,#96,.T.);
#116=ORIENTED_EDGE('',*,*,#85,.F.);
#117=ORIENTED_EDGE('',*,*,#97,.F.);
#118=ORIENTED_EDGE('',*,*,#92,.F.);
#119=ORIENTED_EDGE('',*,*,#98,.T.);
#120=ORIENTED_EDGE('',*,*,#86,.F.);
#121=ORIENTED_EDGE('',*,*,#96,.F.);
#122=ORIENTED_EDGE('',*,*,#91,.F.);
#123=ORIENTED_EDGE('',*,*,#99,.F.);
#124=ORIENTED_EDGE('',*,*,#87,.F.);
#125=ORIENTED_EDGE('',*,*,#98,.F.);
#126=ORIENTED_EDGE('',*,*,#88,.F.);
#127=ORIENTED_EDGE('',*,*,#100,.T.);
#128=ORIENTED_EDGE('',*,*,#94,.F.);
#129=ORIENTED_EDGE('',*,*,#100,.F.);
#130=ORIENTED_EDGE('',*,*,#89,.F.);
#131=ORIENTED_EDGE('',*,*,#101,.T.);
#132=ORIENTED_EDGE('',*,*,#95,.F.);
#133=ORIENTED_EDGE('',*,*,#101,.F.);
#134=ORIENTED_EDGE('',*,*,#97,.T.);
#135=ORIENTED_EDGE('',*,*,#84,.T.);
#136=ORIENTED_EDGE('',*,*,#99,.T.);
#137=ORIENTED_EDGE('',*,*,#90,.T.);
#138=PLANE('',#165);
#139=PLANE('',#169);
#140=PLANE('',#173);
#141=PLANE('',#174);
#142=PLANE('',#175);
#143=ADVANCED_FACE('',(#22,#18,#19),#138,.T.);
#144=ADVANCED_FACE('',(#23,#20,#21),#139,.F.);
#145=ADVANCED_FACE('',(#24),#140,.T.);
#146=ADVANCED_FACE('',(#25),#141,.T.);
#147=ADVANCED_FACE('',(#26),#142,.T.);
#148=ADVANCED_FACE('',(#27),#15,.F.);
#149=ADVANCED_FACE('',(#28),#16,.F.);
#150=ADVANCED_FACE('',(#29),#17,.F.);
#151=CLOSED_SHELL('',(#143,#144,#145,#146,#147,#148,#149,#150));
#152=DERIVED_UNIT_ELEMENT(#154,1.);
#153=DERIVED_UNIT_ELEMENT(#265,-3.);
#154=(
MASS_UNIT()
NAMED_UNIT(*)
SI_UNIT(.KILO.,.GRAM.)
);
#155=DERIVED_UNIT((#152,#153));
#156=MEASURE_REPRESENTATION_ITEM('density measure',
POSITIVE_RATIO_MEASURE(7870.),#155);
#157=PROPERTY_DEFINITION_REPRESENTATION(#162,#159);
#158=PROPERTY_DEFINITION_REPRESENTATION(#163,#160);
#159=REPRESENTATION('material name',(#161),#262);
#160=REPRESENTATION('density',(#156),#262);
#161=DESCRIPTIVE_REPRESENTATION_ITEM('Acier AISI 1015',
'Acier AISI 1015');
#162=PROPERTY_DEFINITION('material property','material name',#272);
#163=PROPERTY_DEFINITION('material property','density of part',#272);
#164=AXIS2_PLACEMENT_3D('placement',#221,#179,#180);
#165=AXIS2_PLACEMENT_3D('',#222,#181,#182);
#166=AXIS2_PLACEMENT_3D('',#225,#183,#184);
#167=AXIS2_PLACEMENT_3D('',#232,#188,#189);
#168=AXIS2_PLACEMENT_3D('',#234,#190,#191);
#169=AXIS2_PLACEMENT_3D('',#235,#192,#193);
#170=AXIS2_PLACEMENT_3D('',#238,#194,#195);
#171=AXIS2_PLACEMENT_3D('',#245,#199,#200);
#172=AXIS2_PLACEMENT_3D('',#247,#201,#202);
#173=AXIS2_PLACEMENT_3D('',#248,#203,#204);
#174=AXIS2_PLACEMENT_3D('',#251,#207,#208);
#175=AXIS2_PLACEMENT_3D('',#253,#210,#211);
#176=AXIS2_PLACEMENT_3D('',#255,#213,#214);
#177=AXIS2_PLACEMENT_3D('',#257,#216,#217);
#178=AXIS2_PLACEMENT_3D('',#259,#219,#220);
#179=DIRECTION('axis',(0.,0.,1.));
#180=DIRECTION('refdir',(1.,0.,0.));
#181=DIRECTION('center_axis',(0.,-1.,0.));
#182=DIRECTION('ref_axis',(0.,0.,-1.));
#183=DIRECTION('center_axis',(0.,-1.,0.));
#184=DIRECTION('ref_axis',(1.,0.,0.));
#185=DIRECTION('',(1.,0.,0.));
#186=DIRECTION('',(0.,0.,1.));
#187=DIRECTION('',(-1.,0.,3.65861374768585E-17));
#188=DIRECTION('center_axis',(0.,1.,0.));
#189=DIRECTION('ref_axis',(1.,0.,0.));
#190=DIRECTION('center_axis',(0.,1.,0.));
#191=DIRECTION('ref_axis',(1.,0.,0.));
#192=DIRECTION('center_axis',(0.,-1.,0.));
#193=DIRECTION('ref_axis',(0.,0.,-1.));
#194=DIRECTION('center_axis',(0.,1.,0.));
#195=DIRECTION('ref_axis',(1.,0.,0.));
#196=DIRECTION('',(1.,0.,-3.65861374768585E-17));
#197=DIRECTION('',(0.,0.,-1.));
#198=DIRECTION('',(-1.,0.,0.));
#199=DIRECTION('center_axis',(0.,-1.,0.));
#200=DIRECTION('ref_axis',(1.,0.,0.));
#201=DIRECTION('center_axis',(0.,-1.,0.));
#202=DIRECTION('ref_axis',(1.,0.,0.));
#203=DIRECTION('center_axis',(0.,0.,-1.));
#204=DIRECTION('ref_axis',(1.,0.,0.));
#205=DIRECTION('',(0.,-1.,0.));
#206=DIRECTION('',(0.,-1.,0.));
#207=DIRECTION('center_axis',(1.,0.,0.));
#208=DIRECTION('ref_axis',(0.,0.,1.));
#209=DIRECTION('',(0.,-1.,0.));
#210=DIRECTION('center_axis',(3.65861374768585E-17,0.,1.));
#211=DIRECTION('ref_axis',(-1.,0.,3.65861374768585E-17));
#212=DIRECTION('',(0.,1.,0.));
#213=DIRECTION('center_axis',(0.,-1.,0.));
#214=DIRECTION('ref_axis',(1.,0.,0.));
#215=DIRECTION('',(0.,1.,0.));
#216=DIRECTION('center_axis',(0.,-1.,0.));
#217=DIRECTION('ref_axis',(1.,0.,0.));
#218=DIRECTION('',(0.,1.,0.));
#219=DIRECTION('center_axis',(0.,1.,0.));
#220=DIRECTION('ref_axis',(1.,0.,0.));
#221=CARTESIAN_POINT('',(0.,0.,0.));
#222=CARTESIAN_POINT('Origin',(-195.345455989373,82.5,-3.77475828372553E-14));
#223=CARTESIAN_POINT('',(-225.690911978746,82.5,-12.5));
#224=CARTESIAN_POINT('',(-225.690911978746,82.5,12.5));
#225=CARTESIAN_POINT('Origin',(-240.,82.5,2.13703398454653E-15));
#226=CARTESIAN_POINT('',(-165.,82.5,-12.5));
#227=CARTESIAN_POINT('',(-180.172727994686,82.5,-12.5));
#228=CARTESIAN_POINT('',(-165.,82.5,12.5));
#229=CARTESIAN_POINT('',(-165.,82.5,6.24999999999996));
#230=CARTESIAN_POINT('',(-210.518183984059,82.5,12.5));
#231=CARTESIAN_POINT('',(-210.,82.5,0.));
#232=CARTESIAN_POINT('Origin',(-205.,82.5,0.));
#233=CARTESIAN_POINT('',(-180.,82.5,0.));
#234=CARTESIAN_POINT('Origin',(-175.,82.5,0.));
#235=CARTESIAN_POINT('Origin',(-195.345455989373,87.5,-3.77475828372553E-14));
#236=CARTESIAN_POINT('',(-225.690911978746,87.5,12.5));
#237=CARTESIAN_POINT('',(-225.690911978746,87.5,-12.5));
#238=CARTESIAN_POINT('Origin',(-240.,87.5,2.13703398454653E-15));
#239=CARTESIAN_POINT('',(-165.,87.5,12.5));
#240=CARTESIAN_POINT('',(-210.518183984059,87.5,12.5));
#241=CARTESIAN_POINT('',(-165.,87.5,-12.5));
#242=CARTESIAN_POINT('',(-165.,87.5,6.24999999999996));
#243=CARTESIAN_POINT('',(-180.172727994686,87.5,-12.5));
#244=CARTESIAN_POINT('',(-210.,87.5,-6.12323399573677E-16));
#245=CARTESIAN_POINT('Origin',(-205.,87.5,0.));
#246=CARTESIAN_POINT('',(-180.,87.5,-6.12323399573677E-16));
#247=CARTESIAN_POINT('Origin',(-175.,87.5,0.));
#248=CARTESIAN_POINT('Origin',(-225.690911978746,87.5,-12.5));
#249=CARTESIAN_POINT('',(-165.,87.5,-12.5));
#250=CARTESIAN_POINT('',(-225.690911978746,0.,-12.5));
#251=CARTESIAN_POINT('Origin',(-165.,87.5,-12.5));
#252=CARTESIAN_POINT('',(-165.,87.5,12.5));
#253=CARTESIAN_POINT('Origin',(-165.,87.5,12.5));
#254=CARTESIAN_POINT('',(-225.690911978746,0.,12.5));
#255=CARTESIAN_POINT('Origin',(-205.,87.5,0.));
#256=CARTESIAN_POINT('',(-210.,87.5,-6.12323399573677E-16));
#257=CARTESIAN_POINT('Origin',(-175.,87.5,0.));
#258=CARTESIAN_POINT('',(-180.,87.5,-6.12323399573677E-16));
#259=CARTESIAN_POINT('Origin',(-240.,0.,2.13703398454653E-15));
#260=UNCERTAINTY_MEASURE_WITH_UNIT(LENGTH_MEASURE(0.01),#264,
'DISTANCE_ACCURACY_VALUE',
'Maximum model space distance between geometric entities at asserted c
onnectivities');
#261=UNCERTAINTY_MEASURE_WITH_UNIT(LENGTH_MEASURE(0.01),#264,
'DISTANCE_ACCURACY_VALUE',
'Maximum model space distance between geometric entities at asserted c
onnectivities');
#262=(
GEOMETRIC_REPRESENTATION_CONTEXT(3)
GLOBAL_UNCERTAINTY_ASSIGNED_CONTEXT((#260))
GLOBAL_UNIT_ASSIGNED_CONTEXT((#264,#266,#267))
REPRESENTATION_CONTEXT('','3D')
);
#263=(
GEOMETRIC_REPRESENTATION_CONTEXT(3)
GLOBAL_UNCERTAINTY_ASSIGNED_CONTEXT((#261))
GLOBAL_UNIT_ASSIGNED_CONTEXT((#264,#266,#267))
REPRESENTATION_CONTEXT('','3D')
);
#264=(
LENGTH_UNIT()
NAMED_UNIT(*)
SI_UNIT(.MILLI.,.METRE.)
);
#265=(
LENGTH_UNIT()
NAMED_UNIT(*)
SI_UNIT($,.METRE.)
);
#266=(
NAMED_UNIT(*)
PLANE_ANGLE_UNIT()
SI_UNIT($,.RADIAN.)
);
#267=(
NAMED_UNIT(*)
SI_UNIT($,.STERADIAN.)
SOLID_ANGLE_UNIT()
);
#268=SHAPE_DEFINITION_REPRESENTATION(#269,#270);
#269=PRODUCT_DEFINITION_SHAPE('',$,#272);
#270=SHAPE_REPRESENTATION('',(#164),#262);
#271=PRODUCT_DEFINITION_CONTEXT('part definition',#276,'design');
#272=PRODUCT_DEFINITION('FusionComponent','FusionComponent',#273,#271);
#273=PRODUCT_DEFINITION_FORMATION('',$,#278);
#274=PRODUCT_RELATED_PRODUCT_CATEGORY('FusionComponent',
'FusionComponent',(#278));
#275=APPLICATION_PROTOCOL_DEFINITION('international standard',
'automotive_design',2009,#276);
#276=APPLICATION_CONTEXT(
'Core Data for Automotive Mechanical Design Process');
#277=PRODUCT_CONTEXT('part definition',#276,'mechanical');
#278=PRODUCT('FusionComponent','FusionComponent',$,(#277));
#279=PRESENTATION_STYLE_ASSIGNMENT((#281));
#280=PRESENTATION_STYLE_ASSIGNMENT((#282));
#281=SURFACE_STYLE_USAGE(.BOTH.,#283);
#282=SURFACE_STYLE_USAGE(.BOTH.,#284);
#283=SURFACE_SIDE_STYLE('',(#285));
#284=SURFACE_SIDE_STYLE('',(#286));
#285=SURFACE_STYLE_FILL_AREA(#287);
#286=SURFACE_STYLE_FILL_AREA(#288);
#287=FILL_AREA_STYLE('Acier - Rugueux',(#289));
#288=FILL_AREA_STYLE('Acier - Satin\X\E9',(#290));
#289=FILL_AREA_STYLE_COLOUR('Acier - Rugueux',#291);
#290=FILL_AREA_STYLE_COLOUR('Acier - Satin\X\E9',#292);
#291=COLOUR_RGB('Acier - Rugueux',0.627450980392157,0.627450980392157,0.627450980392157);
#292=COLOUR_RGB('Acier - Satin\X\E9',0.627450980392157,0.627450980392157,
0.627450980392157);
ENDSEC;
END-ISO-10303-21;
