ISO-10303-21;
HEADER;
/* Generated by software containing ST-Developer
 * from STEP Tools, Inc. (www.steptools.com) 
 */

FILE_DESCRIPTION(
/* description */ (''),
/* implementation_level */ '2;1');

FILE_NAME(
/* name */ 
'C:/Users/Philippe/Desktop/MOBICO/Client/Deegle/Devis/Laser-final/Fuse
e-AV-fond.step',
/* time_stamp */ '2022-08-17T09:21:56+02:00',
/* author */ (''),
/* organization */ (''),
/* preprocessor_version */ 'ST-DEVELOPER v19',
/* originating_system */ 'Autodesk Translation Framework v11.7.0.108',
/* authorisation */ '');

FILE_SCHEMA (('AUTOMOTIVE_DESIGN { 1 0 10303 214 3 1 1 }'));
ENDSEC;

DATA;
#10=MECHANICAL_DESIGN_GEOMETRIC_PRESENTATION_REPRESENTATION('',(#13),#288);
#11=SHAPE_REPRESENTATION_RELATIONSHIP('SRR','None',#295,#12);
#12=ADVANCED_BREP_SHAPE_REPRESENTATION('',(#14),#287);
#13=STYLED_ITEM('',(#305),#14);
#14=MANIFOLD_SOLID_BREP('Corps1',#172);
#15=FACE_BOUND('',#35,.T.);
#16=FACE_BOUND('',#38,.T.);
#17=CIRCLE('',#189,5.);
#18=CIRCLE('',#190,5.);
#19=CYLINDRICAL_SURFACE('',#188,5.);
#20=FACE_OUTER_BOUND('',#29,.T.);
#21=FACE_OUTER_BOUND('',#30,.T.);
#22=FACE_OUTER_BOUND('',#31,.T.);
#23=FACE_OUTER_BOUND('',#32,.T.);
#24=FACE_OUTER_BOUND('',#33,.T.);
#25=FACE_OUTER_BOUND('',#34,.T.);
#26=FACE_OUTER_BOUND('',#36,.T.);
#27=FACE_OUTER_BOUND('',#37,.T.);
#28=FACE_OUTER_BOUND('',#39,.T.);
#29=EDGE_LOOP('',(#113,#114,#115,#116));
#30=EDGE_LOOP('',(#117,#118,#119,#120));
#31=EDGE_LOOP('',(#121,#122,#123,#124));
#32=EDGE_LOOP('',(#125,#126,#127,#128));
#33=EDGE_LOOP('',(#129,#130,#131,#132));
#34=EDGE_LOOP('',(#133,#134,#135,#136,#137,#138));
#35=EDGE_LOOP('',(#139));
#36=EDGE_LOOP('',(#140,#141,#142,#143));
#37=EDGE_LOOP('',(#144,#145,#146,#147,#148,#149));
#38=EDGE_LOOP('',(#150));
#39=EDGE_LOOP('',(#151,#152,#153,#154));
#40=LINE('',#244,#59);
#41=LINE('',#246,#60);
#42=LINE('',#248,#61);
#43=LINE('',#249,#62);
#44=LINE('',#252,#63);
#45=LINE('',#254,#64);
#46=LINE('',#255,#65);
#47=LINE('',#260,#66);
#48=LINE('',#265,#67);
#49=LINE('',#267,#68);
#50=LINE('',#269,#69);
#51=LINE('',#270,#70);
#52=LINE('',#273,#71);
#53=LINE('',#275,#72);
#54=LINE('',#276,#73);
#55=LINE('',#278,#74);
#56=LINE('',#279,#75);
#57=LINE('',#281,#76);
#58=LINE('',#283,#77);
#59=VECTOR('',#201,10.);
#60=VECTOR('',#202,10.);
#61=VECTOR('',#203,10.);
#62=VECTOR('',#204,10.);
#63=VECTOR('',#207,10.);
#64=VECTOR('',#208,10.);
#65=VECTOR('',#209,10.);
#66=VECTOR('',#214,5.);
#67=VECTOR('',#219,10.);
#68=VECTOR('',#220,10.);
#69=VECTOR('',#221,10.);
#70=VECTOR('',#222,10.);
#71=VECTOR('',#225,10.);
#72=VECTOR('',#226,10.);
#73=VECTOR('',#227,10.);
#74=VECTOR('',#230,10.);
#75=VECTOR('',#231,10.);
#76=VECTOR('',#234,10.);
#77=VECTOR('',#237,10.);
#78=VERTEX_POINT('',#242);
#79=VERTEX_POINT('',#243);
#80=VERTEX_POINT('',#245);
#81=VERTEX_POINT('',#247);
#82=VERTEX_POINT('',#251);
#83=VERTEX_POINT('',#253);
#84=VERTEX_POINT('',#257);
#85=VERTEX_POINT('',#259);
#86=VERTEX_POINT('',#263);
#87=VERTEX_POINT('',#264);
#88=VERTEX_POINT('',#266);
#89=VERTEX_POINT('',#268);
#90=VERTEX_POINT('',#272);
#91=VERTEX_POINT('',#274);
#92=EDGE_CURVE('',#78,#79,#40,.T.);
#93=EDGE_CURVE('',#78,#80,#41,.T.);
#94=EDGE_CURVE('',#81,#80,#42,.T.);
#95=EDGE_CURVE('',#79,#81,#43,.T.);
#96=EDGE_CURVE('',#82,#78,#44,.T.);
#97=EDGE_CURVE('',#83,#82,#45,.T.);
#98=EDGE_CURVE('',#80,#83,#46,.T.);
#99=EDGE_CURVE('',#84,#84,#17,.T.);
#100=EDGE_CURVE('',#84,#85,#47,.T.);
#101=EDGE_CURVE('',#85,#85,#18,.T.);
#102=EDGE_CURVE('',#86,#87,#48,.T.);
#103=EDGE_CURVE('',#88,#86,#49,.T.);
#104=EDGE_CURVE('',#89,#88,#50,.T.);
#105=EDGE_CURVE('',#87,#89,#51,.T.);
#106=EDGE_CURVE('',#87,#90,#52,.T.);
#107=EDGE_CURVE('',#89,#91,#53,.T.);
#108=EDGE_CURVE('',#91,#90,#54,.T.);
#109=EDGE_CURVE('',#81,#88,#55,.T.);
#110=EDGE_CURVE('',#91,#83,#56,.T.);
#111=EDGE_CURVE('',#79,#86,#57,.T.);
#112=EDGE_CURVE('',#90,#82,#58,.T.);
#113=ORIENTED_EDGE('',*,*,#92,.F.);
#114=ORIENTED_EDGE('',*,*,#93,.T.);
#115=ORIENTED_EDGE('',*,*,#94,.F.);
#116=ORIENTED_EDGE('',*,*,#95,.F.);
#117=ORIENTED_EDGE('',*,*,#96,.F.);
#118=ORIENTED_EDGE('',*,*,#97,.F.);
#119=ORIENTED_EDGE('',*,*,#98,.F.);
#120=ORIENTED_EDGE('',*,*,#93,.F.);
#121=ORIENTED_EDGE('',*,*,#99,.F.);
#122=ORIENTED_EDGE('',*,*,#100,.T.);
#123=ORIENTED_EDGE('',*,*,#101,.F.);
#124=ORIENTED_EDGE('',*,*,#100,.F.);
#125=ORIENTED_EDGE('',*,*,#102,.F.);
#126=ORIENTED_EDGE('',*,*,#103,.F.);
#127=ORIENTED_EDGE('',*,*,#104,.F.);
#128=ORIENTED_EDGE('',*,*,#105,.F.);
#129=ORIENTED_EDGE('',*,*,#106,.F.);
#130=ORIENTED_EDGE('',*,*,#105,.T.);
#131=ORIENTED_EDGE('',*,*,#107,.T.);
#132=ORIENTED_EDGE('',*,*,#108,.T.);
#133=ORIENTED_EDGE('',*,*,#104,.T.);
#134=ORIENTED_EDGE('',*,*,#109,.F.);
#135=ORIENTED_EDGE('',*,*,#94,.T.);
#136=ORIENTED_EDGE('',*,*,#98,.T.);
#137=ORIENTED_EDGE('',*,*,#110,.F.);
#138=ORIENTED_EDGE('',*,*,#107,.F.);
#139=ORIENTED_EDGE('',*,*,#101,.T.);
#140=ORIENTED_EDGE('',*,*,#103,.T.);
#141=ORIENTED_EDGE('',*,*,#111,.F.);
#142=ORIENTED_EDGE('',*,*,#95,.T.);
#143=ORIENTED_EDGE('',*,*,#109,.T.);
#144=ORIENTED_EDGE('',*,*,#111,.T.);
#145=ORIENTED_EDGE('',*,*,#102,.T.);
#146=ORIENTED_EDGE('',*,*,#106,.T.);
#147=ORIENTED_EDGE('',*,*,#112,.T.);
#148=ORIENTED_EDGE('',*,*,#96,.T.);
#149=ORIENTED_EDGE('',*,*,#92,.T.);
#150=ORIENTED_EDGE('',*,*,#99,.T.);
#151=ORIENTED_EDGE('',*,*,#112,.F.);
#152=ORIENTED_EDGE('',*,*,#108,.F.);
#153=ORIENTED_EDGE('',*,*,#110,.T.);
#154=ORIENTED_EDGE('',*,*,#97,.T.);
#155=PLANE('',#186);
#156=PLANE('',#187);
#157=PLANE('',#191);
#158=PLANE('',#192);
#159=PLANE('',#193);
#160=PLANE('',#194);
#161=PLANE('',#195);
#162=PLANE('',#196);
#163=ADVANCED_FACE('',(#20),#155,.T.);
#164=ADVANCED_FACE('',(#21),#156,.F.);
#165=ADVANCED_FACE('',(#22),#19,.F.);
#166=ADVANCED_FACE('',(#23),#157,.F.);
#167=ADVANCED_FACE('',(#24),#158,.T.);
#168=ADVANCED_FACE('',(#25,#15),#159,.T.);
#169=ADVANCED_FACE('',(#26),#160,.T.);
#170=ADVANCED_FACE('',(#27,#16),#161,.T.);
#171=ADVANCED_FACE('',(#28),#162,.T.);
#172=CLOSED_SHELL('',(#163,#164,#165,#166,#167,#168,#169,#170,#171));
#173=DERIVED_UNIT_ELEMENT(#175,1.);
#174=DERIVED_UNIT_ELEMENT(#290,-3.);
#175=(
MASS_UNIT()
NAMED_UNIT(*)
SI_UNIT(.KILO.,.GRAM.)
);
#176=DERIVED_UNIT((#173,#174));
#177=MEASURE_REPRESENTATION_ITEM('density measure',
POSITIVE_RATIO_MEASURE(7850.),#176);
#178=PROPERTY_DEFINITION_REPRESENTATION(#183,#180);
#179=PROPERTY_DEFINITION_REPRESENTATION(#184,#181);
#180=REPRESENTATION('material name',(#182),#287);
#181=REPRESENTATION('density',(#177),#287);
#182=DESCRIPTIVE_REPRESENTATION_ITEM('Acier','Acier');
#183=PROPERTY_DEFINITION('material property','material name',#297);
#184=PROPERTY_DEFINITION('material property','density of part',#297);
#185=AXIS2_PLACEMENT_3D('placement',#240,#197,#198);
#186=AXIS2_PLACEMENT_3D('',#241,#199,#200);
#187=AXIS2_PLACEMENT_3D('',#250,#205,#206);
#188=AXIS2_PLACEMENT_3D('',#256,#210,#211);
#189=AXIS2_PLACEMENT_3D('',#258,#212,#213);
#190=AXIS2_PLACEMENT_3D('',#261,#215,#216);
#191=AXIS2_PLACEMENT_3D('',#262,#217,#218);
#192=AXIS2_PLACEMENT_3D('',#271,#223,#224);
#193=AXIS2_PLACEMENT_3D('',#277,#228,#229);
#194=AXIS2_PLACEMENT_3D('',#280,#232,#233);
#195=AXIS2_PLACEMENT_3D('',#282,#235,#236);
#196=AXIS2_PLACEMENT_3D('',#284,#238,#239);
#197=DIRECTION('axis',(0.,0.,1.));
#198=DIRECTION('refdir',(1.,0.,0.));
#199=DIRECTION('center_axis',(0.,0.,-1.));
#200=DIRECTION('ref_axis',(-1.,0.,0.));
#201=DIRECTION('',(0.,1.,0.));
#202=DIRECTION('',(-1.,0.,0.));
#203=DIRECTION('',(0.,-1.,0.));
#204=DIRECTION('',(-1.,0.,0.));
#205=DIRECTION('center_axis',(0.,1.,0.));
#206=DIRECTION('ref_axis',(-1.,0.,0.));
#207=DIRECTION('',(0.,0.,-1.));
#208=DIRECTION('',(1.,0.,0.));
#209=DIRECTION('',(0.,0.,1.));
#210=DIRECTION('center_axis',(-1.,0.,0.));
#211=DIRECTION('ref_axis',(0.,1.,0.));
#212=DIRECTION('center_axis',(-1.,0.,0.));
#213=DIRECTION('ref_axis',(0.,1.,0.));
#214=DIRECTION('',(-1.,0.,0.));
#215=DIRECTION('center_axis',(1.,0.,0.));
#216=DIRECTION('ref_axis',(0.,1.,0.));
#217=DIRECTION('center_axis',(0.,0.,1.));
#218=DIRECTION('ref_axis',(1.,0.,0.));
#219=DIRECTION('',(0.,1.,0.));
#220=DIRECTION('',(1.,0.,0.));
#221=DIRECTION('',(0.,-1.,0.));
#222=DIRECTION('',(-1.,0.,0.));
#223=DIRECTION('center_axis',(0.,1.,0.));
#224=DIRECTION('ref_axis',(0.,0.,1.));
#225=DIRECTION('',(0.,0.,1.));
#226=DIRECTION('',(0.,0.,1.));
#227=DIRECTION('',(1.,0.,0.));
#228=DIRECTION('center_axis',(-1.,0.,0.));
#229=DIRECTION('ref_axis',(0.,0.,1.));
#230=DIRECTION('',(0.,0.,-1.));
#231=DIRECTION('',(0.,-1.,0.));
#232=DIRECTION('center_axis',(0.,-1.,0.));
#233=DIRECTION('ref_axis',(0.,0.,-1.));
#234=DIRECTION('',(-9.09580309331453E-16,0.,-1.));
#235=DIRECTION('center_axis',(1.,0.,-9.09580309331453E-16));
#236=DIRECTION('ref_axis',(-9.09580309331453E-16,0.,-1.));
#237=DIRECTION('',(0.,-1.,0.));
#238=DIRECTION('center_axis',(0.,0.,1.));
#239=DIRECTION('ref_axis',(-1.,0.,0.));
#240=CARTESIAN_POINT('',(0.,0.,0.));
#241=CARTESIAN_POINT('Origin',(20.,0.,43.));
#242=CARTESIAN_POINT('',(-25.,-65.,43.));
#243=CARTESIAN_POINT('',(-25.0000000000002,-25.,43.));
#244=CARTESIAN_POINT('',(-25.,-10.,43.));
#245=CARTESIAN_POINT('',(-30.,-65.,43.));
#246=CARTESIAN_POINT('',(20.,-65.,43.));
#247=CARTESIAN_POINT('',(-30.,-25.,43.));
#248=CARTESIAN_POINT('',(-30.,-22.5,43.));
#249=CARTESIAN_POINT('',(-26.2500000000001,-25.,43.));
#250=CARTESIAN_POINT('Origin',(20.,-65.,43.));
#251=CARTESIAN_POINT('',(-25.,-65.,83.));
#252=CARTESIAN_POINT('',(-25.,-65.,21.5));
#253=CARTESIAN_POINT('',(-30.,-65.,83.));
#254=CARTESIAN_POINT('',(-2.50000000000002,-65.,83.));
#255=CARTESIAN_POINT('',(-30.,-65.,-22.5));
#256=CARTESIAN_POINT('Origin',(0.,0.,-63.));
#257=CARTESIAN_POINT('',(-25.,-5.,-63.));
#258=CARTESIAN_POINT('Origin',(-25.,0.,-63.));
#259=CARTESIAN_POINT('',(-30.,-5.,-63.));
#260=CARTESIAN_POINT('',(0.,-5.,-63.));
#261=CARTESIAN_POINT('Origin',(-30.,0.,-63.));
#262=CARTESIAN_POINT('Origin',(-25.0000000000002,0.,-83.));
#263=CARTESIAN_POINT('',(-25.0000000000002,-25.,-83.));
#264=CARTESIAN_POINT('',(-25.,25.,-83.));
#265=CARTESIAN_POINT('',(-25.,-10.,-83.));
#266=CARTESIAN_POINT('',(-30.,-25.,-83.));
#267=CARTESIAN_POINT('',(-20.0000000000001,-25.,-83.));
#268=CARTESIAN_POINT('',(-30.,25.,-83.));
#269=CARTESIAN_POINT('',(-30.,0.,-83.));
#270=CARTESIAN_POINT('',(-20.0000000000001,25.,-83.));
#271=CARTESIAN_POINT('Origin',(-15.,25.,-3.5527136788005E-14));
#272=CARTESIAN_POINT('',(-25.,25.,83.));
#273=CARTESIAN_POINT('',(-25.,25.,-1.33226762955019E-14));
#274=CARTESIAN_POINT('',(-30.,25.,83.));
#275=CARTESIAN_POINT('',(-30.,25.,-88.0000000000001));
#276=CARTESIAN_POINT('',(-7.50000000000002,25.,83.));
#277=CARTESIAN_POINT('Origin',(-30.,0.,-88.0000000000001));
#278=CARTESIAN_POINT('',(-30.,-25.,-88.0000000000001));
#279=CARTESIAN_POINT('',(-30.,-25.,83.));
#280=CARTESIAN_POINT('Origin',(-15.,-25.,-3.5527136788005E-14));
#281=CARTESIAN_POINT('',(-25.0000000000001,-25.,0.));
#282=CARTESIAN_POINT('Origin',(-25.,0.,83.));
#283=CARTESIAN_POINT('',(-25.,-22.5,83.));
#284=CARTESIAN_POINT('Origin',(-25.,-25.,83.));
#285=UNCERTAINTY_MEASURE_WITH_UNIT(LENGTH_MEASURE(0.01),#289,
'DISTANCE_ACCURACY_VALUE',
'Maximum model space distance between geometric entities at asserted c
onnectivities');
#286=UNCERTAINTY_MEASURE_WITH_UNIT(LENGTH_MEASURE(0.01),#289,
'DISTANCE_ACCURACY_VALUE',
'Maximum model space distance between geometric entities at asserted c
onnectivities');
#287=(
GEOMETRIC_REPRESENTATION_CONTEXT(3)
GLOBAL_UNCERTAINTY_ASSIGNED_CONTEXT((#285))
GLOBAL_UNIT_ASSIGNED_CONTEXT((#289,#291,#292))
REPRESENTATION_CONTEXT('','3D')
);
#288=(
GEOMETRIC_REPRESENTATION_CONTEXT(3)
GLOBAL_UNCERTAINTY_ASSIGNED_CONTEXT((#286))
GLOBAL_UNIT_ASSIGNED_CONTEXT((#289,#291,#292))
REPRESENTATION_CONTEXT('','3D')
);
#289=(
LENGTH_UNIT()
NAMED_UNIT(*)
SI_UNIT(.MILLI.,.METRE.)
);
#290=(
LENGTH_UNIT()
NAMED_UNIT(*)
SI_UNIT($,.METRE.)
);
#291=(
NAMED_UNIT(*)
PLANE_ANGLE_UNIT()
SI_UNIT($,.RADIAN.)
);
#292=(
NAMED_UNIT(*)
SI_UNIT($,.STERADIAN.)
SOLID_ANGLE_UNIT()
);
#293=SHAPE_DEFINITION_REPRESENTATION(#294,#295);
#294=PRODUCT_DEFINITION_SHAPE('',$,#297);
#295=SHAPE_REPRESENTATION('',(#185),#287);
#296=PRODUCT_DEFINITION_CONTEXT('part definition',#301,'design');
#297=PRODUCT_DEFINITION('FusionComponent','FusionComponent',#298,#296);
#298=PRODUCT_DEFINITION_FORMATION('',$,#303);
#299=PRODUCT_RELATED_PRODUCT_CATEGORY('FusionComponent',
'FusionComponent',(#303));
#300=APPLICATION_PROTOCOL_DEFINITION('international standard',
'automotive_design',2009,#301);
#301=APPLICATION_CONTEXT(
'Core Data for Automotive Mechanical Design Process');
#302=PRODUCT_CONTEXT('part definition',#301,'mechanical');
#303=PRODUCT('FusionComponent','FusionComponent',$,(#302));
#304=PRESENTATION_STYLE_ASSIGNMENT((#306));
#305=PRESENTATION_STYLE_ASSIGNMENT((#307));
#306=SURFACE_STYLE_USAGE(.BOTH.,#308);
#307=SURFACE_STYLE_USAGE(.BOTH.,#309);
#308=SURFACE_SIDE_STYLE('',(#310));
#309=SURFACE_SIDE_STYLE('',(#311));
#310=SURFACE_STYLE_FILL_AREA(#312);
#311=SURFACE_STYLE_FILL_AREA(#313);
#312=FILL_AREA_STYLE('Acier - Satin\X\E9',(#314));
#313=FILL_AREA_STYLE('Aluminium - Satin\X\E9',(#315));
#314=FILL_AREA_STYLE_COLOUR('Acier - Satin\X\E9',#316);
#315=FILL_AREA_STYLE_COLOUR('Aluminium - Satin\X\E9',#317);
#316=COLOUR_RGB('Acier - Satin\X\E9',0.627450980392157,0.627450980392157,
0.627450980392157);
#317=COLOUR_RGB('Aluminium - Satin\X\E9',0.96078431372549,0.96078431372549,
0.964705882352941);
ENDSEC;
END-ISO-10303-21;
