ISO-10303-21;
HEADER;
FILE_DESCRIPTION (( 'STEP AP214' ),
    '1' );
FILE_NAME ('5-Arbre-guidage-Ø12-Caméra.STEP',
    '2022-08-15T18:51:39',
    ( '' ),
    ( '' ),
    'SwSTEP 2.0',
    'SolidWorks 2019',
    '' );
FILE_SCHEMA (( 'AUTOMOTIVE_DESIGN' ));
ENDSEC;

DATA;
#1 = DIRECTION ( 'NONE',  ( 1.000000000000000000, 0.000000000000000000, 0.000000000000000000 ) ) ;
#2 = CARTESIAN_POINT ( 'NONE',  ( -4.999999999999997335, 6.735557395310441037E-16, 0.000000000000000000 ) ) ;
#3 = VECTOR ( 'NONE', #139, 1000.000000000000000 ) ;
#4 = DIRECTION ( 'NONE',  ( -0.000000000000000000, -0.000000000000000000, 1.000000000000000000 ) ) ;
#5 = EDGE_LOOP ( 'NONE', ( #229, #205, #7, #115 ) ) ;
#6 = FACE_OUTER_BOUND ( 'NONE', #112, .T. ) ;
#7 = ORIENTED_EDGE ( 'NONE', *, *, #8, .T. ) ;
#8 = EDGE_CURVE ( 'NONE', #76, #23, #60, .T. ) ;
#9 = ORIENTED_EDGE ( 'NONE', *, *, #190, .F. ) ;
#10 = SURFACE_SIDE_STYLE ('',( #94 ) ) ;
#11 = CARTESIAN_POINT ( 'NONE',  ( -5.999999999999999112, 0.000000000000000000, 1.000000000000000888 ) ) ;
#12 = VECTOR ( 'NONE', #101, 999.9999999999998863 ) ;
#13 = CARTESIAN_POINT ( 'NONE',  ( 0.000000000000000000, 0.000000000000000000, 0.000000000000000000 ) ) ;
#14 = CARTESIAN_POINT ( 'NONE',  ( 0.000000000000000000, 0.000000000000000000, 80.00000000000000000 ) ) ;
#15 = DIRECTION ( 'NONE',  ( -0.000000000000000000, -0.000000000000000000, -1.000000000000000000 ) ) ;
#16 = AXIS2_PLACEMENT_3D ( 'NONE', #14, #150, #215 ) ;
#17 = ADVANCED_FACE ( 'NONE', ( #52 ), #240, .T. ) ;
#18 = DIRECTION ( 'NONE',  ( -0.000000000000000000, -0.000000000000000000, -1.000000000000000000 ) ) ;
#19 = CARTESIAN_POINT ( 'NONE',  ( 4.999999999999997335, 6.735557395310441037E-16, 80.00000000000000000 ) ) ;
#20 = DIRECTION ( 'NONE',  ( 0.000000000000000000, 0.000000000000000000, -1.000000000000000000 ) ) ;
#21 =( GEOMETRIC_REPRESENTATION_CONTEXT ( 3 ) GLOBAL_UNCERTAINTY_ASSIGNED_CONTEXT ( ( #223 ) ) GLOBAL_UNIT_ASSIGNED_CONTEXT ( ( #226, #91, #164 ) ) REPRESENTATION_CONTEXT ( 'NONE', 'WORKASPACE' ) );
#22 = AXIS2_PLACEMENT_3D ( 'NONE', #152, #214, #174 ) ;
#23 = VERTEX_POINT ( 'NONE', #82 ) ;
#24 =( NAMED_UNIT ( * ) PLANE_ANGLE_UNIT ( ) SI_UNIT ( $, .RADIAN. ) );
#25 = AXIS2_PLACEMENT_3D ( 'NONE', #225, #124, #206 ) ;
#26 = VERTEX_POINT ( 'NONE', #192 ) ;
#27 =( NAMED_UNIT ( * ) PLANE_ANGLE_UNIT ( ) SI_UNIT ( $, .RADIAN. ) );
#28 = DIRECTION ( 'NONE',  ( -0.000000000000000000, -0.000000000000000000, 1.000000000000000000 ) ) ;
#29 = AXIS2_PLACEMENT_3D ( 'NONE', #231, #193, #62 ) ;
#30 = EDGE_CURVE ( 'NONE', #83, #209, #197, .T. ) ;
#31 = FACE_OUTER_BOUND ( 'NONE', #5, .T. ) ;
#32 = EDGE_LOOP ( 'NONE', ( #184, #148 ) ) ;
#33 = CARTESIAN_POINT ( 'NONE',  ( -4.999999999999997335, 0.000000000000000000, 80.00000000000000000 ) ) ;
#34 = AXIS2_PLACEMENT_3D ( 'NONE', #141, #4, #201 ) ;
#35 = DIRECTION ( 'NONE',  ( -0.000000000000000000, -0.000000000000000000, -1.000000000000000000 ) ) ;
#36 = DIRECTION ( 'NONE',  ( 0.000000000000000000, 0.000000000000000000, 1.000000000000000000 ) ) ;
#37 = CARTESIAN_POINT ( 'NONE',  ( 0.000000000000000000, 0.000000000000000000, 80.00000000000000000 ) ) ;
#38 = EDGE_CURVE ( 'NONE', #26, #209, #217, .T. ) ;
#39 = ORIENTED_EDGE ( 'NONE', *, *, #92, .T. ) ;
#40 = PRESENTATION_LAYER_ASSIGNMENT (  '', '', ( #123 ) ) ;
#41 = CARTESIAN_POINT ( 'NONE',  ( 0.000000000000000000, 0.000000000000000000, 79.00000000000000000 ) ) ;
#42 = ORIENTED_EDGE ( 'NONE', *, *, #190, .T. ) ;
#43 = EDGE_LOOP ( 'NONE', ( #105, #119, #170, #213 ) ) ;
#44 = AXIS2_PLACEMENT_3D ( 'NONE', #69, #56, #109 ) ;
#45 = MECHANICAL_DESIGN_GEOMETRIC_PRESENTATION_REPRESENTATION (  '', ( #123 ), #81 ) ;
#46 = DIRECTION ( 'NONE',  ( -0.000000000000000000, -0.000000000000000000, -1.000000000000000000 ) ) ;
#47 = PRESENTATION_STYLE_ASSIGNMENT (( #151 ) ) ;
#48 =( LENGTH_UNIT ( ) NAMED_UNIT ( * ) SI_UNIT ( .MILLI., .METRE. ) );
#49 = ADVANCED_FACE ( 'NONE', ( #31 ), #93, .T. ) ;
#50 = CARTESIAN_POINT ( 'NONE',  ( 4.999999999999997335, 6.123233995736763324E-16, 80.00000000000000000 ) ) ;
#51 = FILL_AREA_STYLE_COLOUR ( '', #220 ) ;
#52 = FACE_OUTER_BOUND ( 'NONE', #172, .T. ) ;
#53 = PRODUCT ( '5-Arbre-guidage-Ø12-Caméra', '5-Arbre-guidage-Ø12-Caméra', '', ( #188 ) ) ;
#54 = DIRECTION ( 'NONE',  ( -1.000000000000000000, 0.000000000000000000, 0.000000000000000000 ) ) ;
#55 = AXIS2_PLACEMENT_3D ( 'NONE', #37, #18, #54 ) ;
#56 = DIRECTION ( 'NONE',  ( 0.000000000000000000, 0.000000000000000000, 1.000000000000000000 ) ) ;
#57 = PLANE ( 'NONE',  #44 ) ;
#58 = DIRECTION ( 'NONE',  ( 0.000000000000000000, 0.000000000000000000, 1.000000000000000000 ) ) ;
#59 =( NAMED_UNIT ( * ) SI_UNIT ( $, .STERADIAN. ) SOLID_ANGLE_UNIT ( ) );
#60 = LINE ( 'NONE', #33, #61 ) ;
#61 = VECTOR ( 'NONE', #191, 999.9999999999998863 ) ;
#62 = DIRECTION ( 'NONE',  ( 1.000000000000000000, 0.000000000000000000, 0.000000000000000000 ) ) ;
#63 = EDGE_CURVE ( 'NONE', #23, #83, #235, .T. ) ;
#64 = FACE_OUTER_BOUND ( 'NONE', #133, .T. ) ;
#65 = MANIFOLD_SOLID_BREP ( 'Chanfrein1', #166 ) ;
#66 = DIRECTION ( 'NONE',  ( 1.000000000000000000, 0.000000000000000000, -0.000000000000000000 ) ) ;
#67 = CIRCLE ( 'NONE', #236, 5.999999999999999112 ) ;
#68 = AXIS2_PLACEMENT_3D ( 'NONE', #234, #103, #134 ) ;
#69 = CARTESIAN_POINT ( 'NONE',  ( 0.000000000000000000, 0.000000000000000000, 80.00000000000000000 ) ) ;
#70 = CIRCLE ( 'NONE', #208, 5.999999999999999112 ) ;
#71 = CYLINDRICAL_SURFACE ( 'NONE', #210, 5.999999999999999112 ) ;
#72 = EDGE_CURVE ( 'NONE', #138, #185, #84, .T. ) ;
#73 = ORIENTED_EDGE ( 'NONE', *, *, #85, .F. ) ;
#74 = FILL_AREA_STYLE ('',( #173 ) ) ;
#75 = CIRCLE ( 'NONE', #175, 4.999999999999997335 ) ;
#76 = VERTEX_POINT ( 'NONE', #80 ) ;
#77 = DIRECTION ( 'NONE',  ( 1.000000000000000000, 0.000000000000000000, 0.000000000000000000 ) ) ;
#78 = DIRECTION ( 'NONE',  ( 1.000000000000000000, 0.000000000000000000, 0.000000000000000000 ) ) ;
#79 = PRODUCT_DEFINITION ( 'UNKNOWN', '', #125, #144 ) ;
#80 = CARTESIAN_POINT ( 'NONE',  ( -4.999999999999997335, 0.000000000000000000, 80.00000000000000000 ) ) ;
#81 =( GEOMETRIC_REPRESENTATION_CONTEXT ( 3 ) GLOBAL_UNCERTAINTY_ASSIGNED_CONTEXT ( ( #200 ) ) GLOBAL_UNIT_ASSIGNED_CONTEXT ( ( #48, #27, #99 ) ) REPRESENTATION_CONTEXT ( 'NONE', 'WORKASPACE' ) );
#82 = CARTESIAN_POINT ( 'NONE',  ( -5.999999999999999112, 0.000000000000000000, 79.00000000000000000 ) ) ;
#83 = VERTEX_POINT ( 'NONE', #11 ) ;
#84 = LINE ( 'NONE', #50, #12 ) ;
#85 = EDGE_CURVE ( 'NONE', #138, #76, #222, .T. ) ;
#86 = AXIS2_PLACEMENT_3D ( 'NONE', #157, #28, #77 ) ;
#87 = CARTESIAN_POINT ( 'NONE',  ( 5.999999999999999112, 7.347880794884118750E-16, 79.00000000000000000 ) ) ;
#88 = ADVANCED_FACE ( 'NONE', ( #64 ), #102, .T. ) ;
#89 = APPLICATION_CONTEXT ( 'automotive_design' ) ;
#90 = DIRECTION ( 'NONE',  ( -1.000000000000000000, 0.000000000000000000, 0.000000000000000000 ) ) ;
#91 =( NAMED_UNIT ( * ) PLANE_ANGLE_UNIT ( ) SI_UNIT ( $, .RADIAN. ) );
#92 = EDGE_CURVE ( 'NONE', #147, #26, #153, .T. ) ;
#93 = CONICAL_SURFACE ( 'NONE', #68, 4.999999999999997335, 0.7853981633974487231 ) ;
#94 = SURFACE_STYLE_FILL_AREA ( #74 ) ;
#95 = ORIENTED_EDGE ( 'NONE', *, *, #195, .F. ) ;
#96 = CIRCLE ( 'NONE', #116, 4.999999999999997335 ) ;
#97 =( LENGTH_UNIT ( ) NAMED_UNIT ( * ) SI_UNIT ( .MILLI., .METRE. ) );
#98 = ORIENTED_EDGE ( 'NONE', *, *, #72, .T. ) ;
#99 =( NAMED_UNIT ( * ) SI_UNIT ( $, .STERADIAN. ) SOLID_ANGLE_UNIT ( ) );
#100 = CARTESIAN_POINT ( 'NONE',  ( 0.000000000000000000, 0.000000000000000000, 0.000000000000000000 ) ) ;
#101 = DIRECTION ( 'NONE',  ( 0.7071067811865479058, 8.659560562354937789E-17, -0.7071067811865472397 ) ) ;
#102 = CONICAL_SURFACE ( 'NONE', #29, 5.999999999999999112, 0.7853981633974487231 ) ;
#103 = DIRECTION ( 'NONE',  ( 0.000000000000000000, 0.000000000000000000, -1.000000000000000000 ) ) ;
#104 = SURFACE_STYLE_USAGE ( .BOTH. , #117 ) ;
#105 = ORIENTED_EDGE ( 'NONE', *, *, #156, .F. ) ;
#106 = CARTESIAN_POINT ( 'NONE',  ( 5.999999999999999112, 7.347880794884118750E-16, 80.00000000000000000 ) ) ;
#107 = DIRECTION ( 'NONE',  ( 1.000000000000000000, 0.000000000000000000, 0.000000000000000000 ) ) ;
#108 = EDGE_CURVE ( 'NONE', #185, #23, #70, .T. ) ;
#109 = DIRECTION ( 'NONE',  ( 1.000000000000000000, 0.000000000000000000, -0.000000000000000000 ) ) ;
#110 = DIRECTION ( 'NONE',  ( -0.7071067811865479058, 8.659560562354937789E-17, 0.7071067811865472397 ) ) ;
#111 = MECHANICAL_DESIGN_GEOMETRIC_PRESENTATION_REPRESENTATION (  '', ( #161 ), #135 ) ;
#112 = EDGE_LOOP ( 'NONE', ( #228, #39 ) ) ;
#113 = DIRECTION ( 'NONE',  ( 0.000000000000000000, 0.000000000000000000, -1.000000000000000000 ) ) ;
#114 = EDGE_LOOP ( 'NONE', ( #42, #178, #183, #142 ) ) ;
#115 = ORIENTED_EDGE ( 'NONE', *, *, #108, .F. ) ;
#116 = AXIS2_PLACEMENT_3D ( 'NONE', #143, #35, #180 ) ;
#117 = SURFACE_SIDE_STYLE ('',( #158 ) ) ;
#118 = ADVANCED_FACE ( 'NONE', ( #6 ), #165, .F. ) ;
#119 = ORIENTED_EDGE ( 'NONE', *, *, #181, .F. ) ;
#120 = FILL_AREA_STYLE ('',( #51 ) ) ;
#121 = LINE ( 'NONE', #163, #136 ) ;
#122 = COLOUR_RGB ( '',0.6431372549019607199, 0.5882352941176470784, 0.8941176470588234615 ) ;
#123 = STYLED_ITEM ( 'NONE', ( #189 ), #65 ) ;
#124 = DIRECTION ( 'NONE',  ( -0.000000000000000000, -0.000000000000000000, 1.000000000000000000 ) ) ;
#125 = PRODUCT_DEFINITION_FORMATION_WITH_SPECIFIED_SOURCE ( 'ANY', '', #53, .NOT_KNOWN. ) ;
#126 = ADVANCED_FACE ( 'NONE', ( #221 ), #218, .T. ) ;
#127 = CARTESIAN_POINT ( 'NONE',  ( 0.000000000000000000, 0.000000000000000000, 0.000000000000000000 ) ) ;
#128 = ORIENTED_EDGE ( 'NONE', *, *, #149, .F. ) ;
#129 = CARTESIAN_POINT ( 'NONE',  ( 0.000000000000000000, 0.000000000000000000, 80.00000000000000000 ) ) ;
#130 = ORIENTED_EDGE ( 'NONE', *, *, #38, .F. ) ;
#131 = LINE ( 'NONE', #106, #3 ) ;
#132 = CONICAL_SURFACE ( 'NONE', #34, 5.999999999999999112, 0.7853981633974487231 ) ;
#133 = EDGE_LOOP ( 'NONE', ( #202, #227, #95, #130 ) ) ;
#134 = DIRECTION ( 'NONE',  ( -1.000000000000000000, 0.000000000000000000, 0.000000000000000000 ) ) ;
#135 =( GEOMETRIC_REPRESENTATION_CONTEXT ( 3 ) GLOBAL_UNCERTAINTY_ASSIGNED_CONTEXT ( ( #160 ) ) GLOBAL_UNIT_ASSIGNED_CONTEXT ( ( #97, #24, #59 ) ) REPRESENTATION_CONTEXT ( 'NONE', 'WORKASPACE' ) );
#136 = VECTOR ( 'NONE', #110, 999.9999999999998863 ) ;
#137 = EDGE_LOOP ( 'NONE', ( #128, #167, #169, #224 ) ) ;
#138 = VERTEX_POINT ( 'NONE', #19 ) ;
#139 = DIRECTION ( 'NONE',  ( -0.000000000000000000, -0.000000000000000000, -1.000000000000000000 ) ) ;
#140 = PRODUCT_DEFINITION_SHAPE ( 'NONE', 'NONE',  #79 ) ;
#141 = CARTESIAN_POINT ( 'NONE',  ( 0.000000000000000000, 0.000000000000000000, 1.000000000000000888 ) ) ;
#142 = ORIENTED_EDGE ( 'NONE', *, *, #63, .F. ) ;
#143 = CARTESIAN_POINT ( 'NONE',  ( 0.000000000000000000, 0.000000000000000000, 0.000000000000000000 ) ) ;
#144 = PRODUCT_DEFINITION_CONTEXT ( 'detailed design', #216, 'design' ) ;
#145 = APPLICATION_PROTOCOL_DEFINITION ( 'draft international standard', 'automotive_design', 1998, #89 ) ;
#146 = APPLICATION_PROTOCOL_DEFINITION ( 'draft international standard', 'automotive_design', 1998, #216 ) ;
#147 = VERTEX_POINT ( 'NONE', #2 ) ;
#148 = ORIENTED_EDGE ( 'NONE', *, *, #85, .T. ) ;
#149 = EDGE_CURVE ( 'NONE', #185, #209, #131, .T. ) ;
#150 = DIRECTION ( 'NONE',  ( 0.000000000000000000, 0.000000000000000000, -1.000000000000000000 ) ) ;
#151 = SURFACE_STYLE_USAGE ( .BOTH. , #10 ) ;
#152 = CARTESIAN_POINT ( 'NONE',  ( 0.000000000000000000, 0.000000000000000000, 80.00000000000000000 ) ) ;
#153 = CIRCLE ( 'NONE', #176, 4.999999999999997335 ) ;
#154 = DIRECTION ( 'NONE',  ( 0.000000000000000000, 0.000000000000000000, 1.000000000000000000 ) ) ;
#155 = DIRECTION ( 'NONE',  ( -0.000000000000000000, -0.000000000000000000, -1.000000000000000000 ) ) ;
#156 = EDGE_CURVE ( 'NONE', #147, #83, #121, .T. ) ;
#157 = CARTESIAN_POINT ( 'NONE',  ( 0.000000000000000000, 0.000000000000000000, 1.000000000000000888 ) ) ;
#158 = SURFACE_STYLE_FILL_AREA ( #120 ) ;
#159 = CARTESIAN_POINT ( 'NONE',  ( 0.000000000000000000, 0.000000000000000000, 79.00000000000000000 ) ) ;
#160 = UNCERTAINTY_MEASURE_WITH_UNIT (LENGTH_MEASURE( 1.000000000000000082E-05 ), #97, 'distance_accuracy_value', 'NONE');
#161 = STYLED_ITEM ( 'NONE', ( #47 ), #219 ) ;
#162 = ADVANCED_FACE ( 'NONE', ( #196 ), #71, .T. ) ;
#163 = CARTESIAN_POINT ( 'NONE',  ( -5.999999999999999112, 7.347880794884118750E-16, 1.000000000000000888 ) ) ;
#164 =( NAMED_UNIT ( * ) SI_UNIT ( $, .STERADIAN. ) SOLID_ANGLE_UNIT ( ) );
#165 = PLANE ( 'NONE',  #211 ) ;
#166 = CLOSED_SHELL ( 'NONE', ( #17, #88, #162, #126, #203, #118, #171, #49 ) ) ;
#167 = ORIENTED_EDGE ( 'NONE', *, *, #108, .T. ) ;
#168 = FACE_OUTER_BOUND ( 'NONE', #32, .T. ) ;
#169 = ORIENTED_EDGE ( 'NONE', *, *, #63, .T. ) ;
#170 = ORIENTED_EDGE ( 'NONE', *, *, #38, .T. ) ;
#171 = ADVANCED_FACE ( 'NONE', ( #237 ), #132, .T. ) ;
#172 = EDGE_LOOP ( 'NONE', ( #73, #98, #9, #187 ) ) ;
#173 = FILL_AREA_STYLE_COLOUR ( '', #122 ) ;
#174 = DIRECTION ( 'NONE',  ( 1.000000000000000000, 0.000000000000000000, 0.000000000000000000 ) ) ;
#175 = AXIS2_PLACEMENT_3D ( 'NONE', #129, #36, #107 ) ;
#176 = AXIS2_PLACEMENT_3D ( 'NONE', #13, #155, #233 ) ;
#177 = DIRECTION ( 'NONE',  ( 0.7071067811865479058, 0.000000000000000000, 0.7071067811865472397 ) ) ;
#178 = ORIENTED_EDGE ( 'NONE', *, *, #149, .T. ) ;
#179 = CARTESIAN_POINT ( 'NONE',  ( 0.000000000000000000, 0.000000000000000000, 80.00000000000000000 ) ) ;
#180 = DIRECTION ( 'NONE',  ( 1.000000000000000000, 0.000000000000000000, 0.000000000000000000 ) ) ;
#181 = EDGE_CURVE ( 'NONE', #26, #147, #96, .T. ) ;
#182 = VECTOR ( 'NONE', #177, 999.9999999999998863 ) ;
#183 = ORIENTED_EDGE ( 'NONE', *, *, #195, .T. ) ;
#184 = ORIENTED_EDGE ( 'NONE', *, *, #238, .T. ) ;
#185 = VERTEX_POINT ( 'NONE', #87 ) ;
#186 = CIRCLE ( 'NONE', #25, 5.999999999999999112 ) ;
#187 = ORIENTED_EDGE ( 'NONE', *, *, #8, .F. ) ;
#188 = PRODUCT_CONTEXT ( 'NONE', #89, 'mechanical' ) ;
#189 = PRESENTATION_STYLE_ASSIGNMENT (( #104 ) ) ;
#190 = EDGE_CURVE ( 'NONE', #23, #185, #67, .T. ) ;
#191 = DIRECTION ( 'NONE',  ( -0.7071067811865479058, 0.000000000000000000, -0.7071067811865472397 ) ) ;
#192 = CARTESIAN_POINT ( 'NONE',  ( 4.999999999999997335, 0.000000000000000000, 0.000000000000000000 ) ) ;
#193 = DIRECTION ( 'NONE',  ( -0.000000000000000000, -0.000000000000000000, 1.000000000000000000 ) ) ;
#194 = CARTESIAN_POINT ( 'NONE',  ( 5.999999999999999112, 0.000000000000000000, 1.000000000000000888 ) ) ;
#195 = EDGE_CURVE ( 'NONE', #209, #83, #186, .T. ) ;
#196 = FACE_OUTER_BOUND ( 'NONE', #114, .T. ) ;
#197 = CIRCLE ( 'NONE', #86, 5.999999999999999112 ) ;
#198 = PRODUCT_RELATED_PRODUCT_CATEGORY ( 'part', '', ( #53 ) ) ;
#199 = CARTESIAN_POINT ( 'NONE',  ( 5.999999999999999112, 7.347880794884118750E-16, 1.000000000000000888 ) ) ;
#200 = UNCERTAINTY_MEASURE_WITH_UNIT (LENGTH_MEASURE( 1.000000000000000082E-05 ), #48, 'distance_accuracy_value', 'NONE');
#201 = DIRECTION ( 'NONE',  ( 1.000000000000000000, 0.000000000000000000, 0.000000000000000000 ) ) ;
#202 = ORIENTED_EDGE ( 'NONE', *, *, #92, .F. ) ;
#203 = ADVANCED_FACE ( 'NONE', ( #168 ), #57, .T. ) ;
#204 = DIRECTION ( 'NONE',  ( 1.000000000000000000, 0.000000000000000000, 0.000000000000000000 ) ) ;
#205 = ORIENTED_EDGE ( 'NONE', *, *, #238, .F. ) ;
#206 = DIRECTION ( 'NONE',  ( 1.000000000000000000, 0.000000000000000000, 0.000000000000000000 ) ) ;
#207 = PRESENTATION_LAYER_ASSIGNMENT (  '', '', ( #161 ) ) ;
#208 = AXIS2_PLACEMENT_3D ( 'NONE', #159, #113, #204 ) ;
#209 = VERTEX_POINT ( 'NONE', #199 ) ;
#210 = AXIS2_PLACEMENT_3D ( 'NONE', #179, #15, #90 ) ;
#211 = AXIS2_PLACEMENT_3D ( 'NONE', #127, #58, #66 ) ;
#212 = CARTESIAN_POINT ( 'NONE',  ( -5.999999999999999112, 0.000000000000000000, 80.00000000000000000 ) ) ;
#213 = ORIENTED_EDGE ( 'NONE', *, *, #30, .F. ) ;
#214 = DIRECTION ( 'NONE',  ( 0.000000000000000000, 0.000000000000000000, 1.000000000000000000 ) ) ;
#215 = DIRECTION ( 'NONE',  ( -1.000000000000000000, 0.000000000000000000, 0.000000000000000000 ) ) ;
#216 = APPLICATION_CONTEXT ( 'automotive_design' ) ;
#217 = LINE ( 'NONE', #194, #182 ) ;
#218 = CYLINDRICAL_SURFACE ( 'NONE', #55, 5.999999999999999112 ) ;
#219 = ADVANCED_BREP_SHAPE_REPRESENTATION ( '5-Arbre-guidage-Ï12-CamÚra', ( #65, #239 ), #21 ) ;
#220 = COLOUR_RGB ( '',0.6431372549019607199, 0.5882352941176470784, 0.8941176470588234615 ) ;
#221 = FACE_OUTER_BOUND ( 'NONE', #137, .T. ) ;
#222 = CIRCLE ( 'NONE', #22, 4.999999999999997335 ) ;
#223 = UNCERTAINTY_MEASURE_WITH_UNIT (LENGTH_MEASURE( 1.000000000000000082E-05 ), #226, 'distance_accuracy_value', 'NONE');
#224 = ORIENTED_EDGE ( 'NONE', *, *, #30, .T. ) ;
#225 = CARTESIAN_POINT ( 'NONE',  ( 0.000000000000000000, 0.000000000000000000, 1.000000000000000888 ) ) ;
#226 =( LENGTH_UNIT ( ) NAMED_UNIT ( * ) SI_UNIT ( .MILLI., .METRE. ) );
#227 = ORIENTED_EDGE ( 'NONE', *, *, #156, .T. ) ;
#228 = ORIENTED_EDGE ( 'NONE', *, *, #181, .T. ) ;
#229 = ORIENTED_EDGE ( 'NONE', *, *, #72, .F. ) ;
#230 = VECTOR ( 'NONE', #46, 1000.000000000000000 ) ;
#231 = CARTESIAN_POINT ( 'NONE',  ( 0.000000000000000000, 0.000000000000000000, 1.000000000000000888 ) ) ;
#232 = SHAPE_DEFINITION_REPRESENTATION ( #140, #219 ) ;
#233 = DIRECTION ( 'NONE',  ( 1.000000000000000000, 0.000000000000000000, 0.000000000000000000 ) ) ;
#234 = CARTESIAN_POINT ( 'NONE',  ( 0.000000000000000000, 0.000000000000000000, 80.00000000000000000 ) ) ;
#235 = LINE ( 'NONE', #212, #230 ) ;
#236 = AXIS2_PLACEMENT_3D ( 'NONE', #41, #20, #1 ) ;
#237 = FACE_OUTER_BOUND ( 'NONE', #43, .T. ) ;
#238 = EDGE_CURVE ( 'NONE', #76, #138, #75, .T. ) ;
#239 = AXIS2_PLACEMENT_3D ( 'NONE', #100, #154, #78 ) ;
#240 = CONICAL_SURFACE ( 'NONE', #16, 4.999999999999997335, 0.7853981633974487231 ) ;
ENDSEC;
END-ISO-10303-21;
