ISO-10303-21;
HEADER;
/* Generated by software containing ST-Developer
 * from STEP Tools, Inc. (www.steptools.com) 
 */

FILE_DESCRIPTION(
/* description */ (''),
/* implementation_level */ '2;1');

FILE_NAME(
/* name */ 
'C:/Users/Philippe/Desktop/MOBICO/Client/Deegle/Devis/Laser-final/Fuse
e-AV-frein.step',
/* time_stamp */ '2022-08-17T09:21:09+02:00',
/* author */ (''),
/* organization */ (''),
/* preprocessor_version */ 'ST-DEVELOPER v19',
/* originating_system */ 'Autodesk Translation Framework v11.7.0.108',
/* authorisation */ '');

FILE_SCHEMA (('AUTOMOTIVE_DESIGN { 1 0 10303 214 3 1 1 }'));
ENDSEC;

DATA;
#10=MECHANICAL_DESIGN_GEOMETRIC_PRESENTATION_REPRESENTATION('',(#13),#331);
#11=SHAPE_REPRESENTATION_RELATIONSHIP('SRR','None',#338,#12);
#12=ADVANCED_BREP_SHAPE_REPRESENTATION('',(#14),#330);
#13=STYLED_ITEM('',(#347),#14);
#14=MANIFOLD_SOLID_BREP('Corps1',#191);
#15=FACE_BOUND('',#44,.T.);
#16=FACE_BOUND('',#45,.T.);
#17=FACE_BOUND('',#47,.T.);
#18=FACE_BOUND('',#48,.T.);
#19=PLANE('',#211);
#20=PLANE('',#215);
#21=PLANE('',#216);
#22=PLANE('',#217);
#23=PLANE('',#221);
#24=PLANE('',#222);
#25=FACE_OUTER_BOUND('',#35,.T.);
#26=FACE_OUTER_BOUND('',#36,.T.);
#27=FACE_OUTER_BOUND('',#37,.T.);
#28=FACE_OUTER_BOUND('',#38,.T.);
#29=FACE_OUTER_BOUND('',#39,.T.);
#30=FACE_OUTER_BOUND('',#40,.T.);
#31=FACE_OUTER_BOUND('',#41,.T.);
#32=FACE_OUTER_BOUND('',#42,.T.);
#33=FACE_OUTER_BOUND('',#43,.T.);
#34=FACE_OUTER_BOUND('',#46,.T.);
#35=EDGE_LOOP('',(#129,#130,#131,#132));
#36=EDGE_LOOP('',(#133,#134,#135,#136));
#37=EDGE_LOOP('',(#137,#138,#139,#140));
#38=EDGE_LOOP('',(#141,#142,#143,#144));
#39=EDGE_LOOP('',(#145,#146,#147,#148));
#40=EDGE_LOOP('',(#149,#150,#151,#152));
#41=EDGE_LOOP('',(#153,#154,#155,#156));
#42=EDGE_LOOP('',(#157,#158,#159,#160));
#43=EDGE_LOOP('',(#161,#162,#163,#164,#165,#166));
#44=EDGE_LOOP('',(#167));
#45=EDGE_LOOP('',(#168));
#46=EDGE_LOOP('',(#169,#170,#171,#172,#173,#174));
#47=EDGE_LOOP('',(#175));
#48=EDGE_LOOP('',(#176));
#49=LINE('',#282,#65);
#50=LINE('',#288,#66);
#51=LINE('',#293,#67);
#52=LINE('',#295,#68);
#53=LINE('',#297,#69);
#54=LINE('',#298,#70);
#55=LINE('',#304,#71);
#56=LINE('',#307,#72);
#57=LINE('',#309,#73);
#58=LINE('',#310,#74);
#59=LINE('',#313,#75);
#60=LINE('',#315,#76);
#61=LINE('',#316,#77);
#62=LINE('',#319,#78);
#63=LINE('',#321,#79);
#64=LINE('',#322,#80);
#65=VECTOR('',#229,3.);
#66=VECTOR('',#236,3.);
#67=VECTOR('',#241,10.);
#68=VECTOR('',#242,10.);
#69=VECTOR('',#243,10.);
#70=VECTOR('',#244,10.);
#71=VECTOR('',#251,10.);
#72=VECTOR('',#254,10.);
#73=VECTOR('',#255,10.);
#74=VECTOR('',#256,10.);
#75=VECTOR('',#259,10.);
#76=VECTOR('',#260,10.);
#77=VECTOR('',#261,10.);
#78=VECTOR('',#264,10.);
#79=VECTOR('',#265,10.);
#80=VECTOR('',#266,10.);
#81=CIRCLE('',#206,3.);
#82=CIRCLE('',#207,3.);
#83=CIRCLE('',#209,3.);
#84=CIRCLE('',#210,3.);
#85=CIRCLE('',#213,8.);
#86=CIRCLE('',#214,8.);
#87=CIRCLE('',#219,8.);
#88=CIRCLE('',#220,8.);
#89=VERTEX_POINT('',#279);
#90=VERTEX_POINT('',#281);
#91=VERTEX_POINT('',#285);
#92=VERTEX_POINT('',#287);
#93=VERTEX_POINT('',#291);
#94=VERTEX_POINT('',#292);
#95=VERTEX_POINT('',#294);
#96=VERTEX_POINT('',#296);
#97=VERTEX_POINT('',#300);
#98=VERTEX_POINT('',#302);
#99=VERTEX_POINT('',#306);
#100=VERTEX_POINT('',#308);
#101=VERTEX_POINT('',#312);
#102=VERTEX_POINT('',#314);
#103=VERTEX_POINT('',#318);
#104=VERTEX_POINT('',#320);
#105=EDGE_CURVE('',#89,#89,#81,.T.);
#106=EDGE_CURVE('',#89,#90,#49,.T.);
#107=EDGE_CURVE('',#90,#90,#82,.T.);
#108=EDGE_CURVE('',#91,#91,#83,.T.);
#109=EDGE_CURVE('',#91,#92,#50,.T.);
#110=EDGE_CURVE('',#92,#92,#84,.T.);
#111=EDGE_CURVE('',#93,#94,#51,.T.);
#112=EDGE_CURVE('',#93,#95,#52,.T.);
#113=EDGE_CURVE('',#96,#95,#53,.T.);
#114=EDGE_CURVE('',#94,#96,#54,.T.);
#115=EDGE_CURVE('',#94,#97,#85,.T.);
#116=EDGE_CURVE('',#98,#96,#86,.T.);
#117=EDGE_CURVE('',#97,#98,#55,.T.);
#118=EDGE_CURVE('',#97,#99,#56,.T.);
#119=EDGE_CURVE('',#100,#98,#57,.T.);
#120=EDGE_CURVE('',#99,#100,#58,.T.);
#121=EDGE_CURVE('',#101,#99,#59,.T.);
#122=EDGE_CURVE('',#102,#100,#60,.T.);
#123=EDGE_CURVE('',#101,#102,#61,.T.);
#124=EDGE_CURVE('',#101,#103,#62,.T.);
#125=EDGE_CURVE('',#104,#102,#63,.T.);
#126=EDGE_CURVE('',#103,#104,#64,.T.);
#127=EDGE_CURVE('',#103,#93,#87,.T.);
#128=EDGE_CURVE('',#95,#104,#88,.T.);
#129=ORIENTED_EDGE('',*,*,#105,.F.);
#130=ORIENTED_EDGE('',*,*,#106,.T.);
#131=ORIENTED_EDGE('',*,*,#107,.F.);
#132=ORIENTED_EDGE('',*,*,#106,.F.);
#133=ORIENTED_EDGE('',*,*,#108,.F.);
#134=ORIENTED_EDGE('',*,*,#109,.T.);
#135=ORIENTED_EDGE('',*,*,#110,.F.);
#136=ORIENTED_EDGE('',*,*,#109,.F.);
#137=ORIENTED_EDGE('',*,*,#111,.F.);
#138=ORIENTED_EDGE('',*,*,#112,.T.);
#139=ORIENTED_EDGE('',*,*,#113,.F.);
#140=ORIENTED_EDGE('',*,*,#114,.F.);
#141=ORIENTED_EDGE('',*,*,#115,.F.);
#142=ORIENTED_EDGE('',*,*,#114,.T.);
#143=ORIENTED_EDGE('',*,*,#116,.F.);
#144=ORIENTED_EDGE('',*,*,#117,.F.);
#145=ORIENTED_EDGE('',*,*,#118,.F.);
#146=ORIENTED_EDGE('',*,*,#117,.T.);
#147=ORIENTED_EDGE('',*,*,#119,.F.);
#148=ORIENTED_EDGE('',*,*,#120,.F.);
#149=ORIENTED_EDGE('',*,*,#121,.T.);
#150=ORIENTED_EDGE('',*,*,#120,.T.);
#151=ORIENTED_EDGE('',*,*,#122,.F.);
#152=ORIENTED_EDGE('',*,*,#123,.F.);
#153=ORIENTED_EDGE('',*,*,#124,.F.);
#154=ORIENTED_EDGE('',*,*,#123,.T.);
#155=ORIENTED_EDGE('',*,*,#125,.F.);
#156=ORIENTED_EDGE('',*,*,#126,.F.);
#157=ORIENTED_EDGE('',*,*,#127,.F.);
#158=ORIENTED_EDGE('',*,*,#126,.T.);
#159=ORIENTED_EDGE('',*,*,#128,.F.);
#160=ORIENTED_EDGE('',*,*,#112,.F.);
#161=ORIENTED_EDGE('',*,*,#127,.T.);
#162=ORIENTED_EDGE('',*,*,#111,.T.);
#163=ORIENTED_EDGE('',*,*,#115,.T.);
#164=ORIENTED_EDGE('',*,*,#118,.T.);
#165=ORIENTED_EDGE('',*,*,#121,.F.);
#166=ORIENTED_EDGE('',*,*,#124,.T.);
#167=ORIENTED_EDGE('',*,*,#110,.T.);
#168=ORIENTED_EDGE('',*,*,#107,.T.);
#169=ORIENTED_EDGE('',*,*,#128,.T.);
#170=ORIENTED_EDGE('',*,*,#125,.T.);
#171=ORIENTED_EDGE('',*,*,#122,.T.);
#172=ORIENTED_EDGE('',*,*,#119,.T.);
#173=ORIENTED_EDGE('',*,*,#116,.T.);
#174=ORIENTED_EDGE('',*,*,#113,.T.);
#175=ORIENTED_EDGE('',*,*,#108,.T.);
#176=ORIENTED_EDGE('',*,*,#105,.T.);
#177=CYLINDRICAL_SURFACE('',#205,3.);
#178=CYLINDRICAL_SURFACE('',#208,3.);
#179=CYLINDRICAL_SURFACE('',#212,8.);
#180=CYLINDRICAL_SURFACE('',#218,8.);
#181=ADVANCED_FACE('',(#25),#177,.F.);
#182=ADVANCED_FACE('',(#26),#178,.F.);
#183=ADVANCED_FACE('',(#27),#19,.T.);
#184=ADVANCED_FACE('',(#28),#179,.T.);
#185=ADVANCED_FACE('',(#29),#20,.T.);
#186=ADVANCED_FACE('',(#30),#21,.T.);
#187=ADVANCED_FACE('',(#31),#22,.T.);
#188=ADVANCED_FACE('',(#32),#180,.T.);
#189=ADVANCED_FACE('',(#33,#15,#16),#23,.T.);
#190=ADVANCED_FACE('',(#34,#17,#18),#24,.F.);
#191=CLOSED_SHELL('',(#181,#182,#183,#184,#185,#186,#187,#188,#189,#190));
#192=DERIVED_UNIT_ELEMENT(#194,1.);
#193=DERIVED_UNIT_ELEMENT(#333,-3.);
#194=(
MASS_UNIT()
NAMED_UNIT(*)
SI_UNIT(.KILO.,.GRAM.)
);
#195=DERIVED_UNIT((#192,#193));
#196=MEASURE_REPRESENTATION_ITEM('density measure',
POSITIVE_RATIO_MEASURE(7850.),#195);
#197=PROPERTY_DEFINITION_REPRESENTATION(#202,#199);
#198=PROPERTY_DEFINITION_REPRESENTATION(#203,#200);
#199=REPRESENTATION('material name',(#201),#330);
#200=REPRESENTATION('density',(#196),#330);
#201=DESCRIPTIVE_REPRESENTATION_ITEM('Acier','Acier');
#202=PROPERTY_DEFINITION('material property','material name',#340);
#203=PROPERTY_DEFINITION('material property','density of part',#340);
#204=AXIS2_PLACEMENT_3D('placement',#277,#223,#224);
#205=AXIS2_PLACEMENT_3D('',#278,#225,#226);
#206=AXIS2_PLACEMENT_3D('',#280,#227,#228);
#207=AXIS2_PLACEMENT_3D('',#283,#230,#231);
#208=AXIS2_PLACEMENT_3D('',#284,#232,#233);
#209=AXIS2_PLACEMENT_3D('',#286,#234,#235);
#210=AXIS2_PLACEMENT_3D('',#289,#237,#238);
#211=AXIS2_PLACEMENT_3D('',#290,#239,#240);
#212=AXIS2_PLACEMENT_3D('',#299,#245,#246);
#213=AXIS2_PLACEMENT_3D('',#301,#247,#248);
#214=AXIS2_PLACEMENT_3D('',#303,#249,#250);
#215=AXIS2_PLACEMENT_3D('',#305,#252,#253);
#216=AXIS2_PLACEMENT_3D('',#311,#257,#258);
#217=AXIS2_PLACEMENT_3D('',#317,#262,#263);
#218=AXIS2_PLACEMENT_3D('',#323,#267,#268);
#219=AXIS2_PLACEMENT_3D('',#324,#269,#270);
#220=AXIS2_PLACEMENT_3D('',#325,#271,#272);
#221=AXIS2_PLACEMENT_3D('',#326,#273,#274);
#222=AXIS2_PLACEMENT_3D('',#327,#275,#276);
#223=DIRECTION('axis',(0.,0.,1.));
#224=DIRECTION('refdir',(1.,0.,0.));
#225=DIRECTION('center_axis',(1.,0.,0.));
#226=DIRECTION('ref_axis',(0.,-1.,0.));
#227=DIRECTION('center_axis',(-1.,0.,0.));
#228=DIRECTION('ref_axis',(0.,-1.,0.));
#229=DIRECTION('',(-1.,0.,0.));
#230=DIRECTION('center_axis',(1.,0.,0.));
#231=DIRECTION('ref_axis',(0.,-1.,0.));
#232=DIRECTION('center_axis',(1.,0.,0.));
#233=DIRECTION('ref_axis',(0.,-1.,0.));
#234=DIRECTION('center_axis',(-1.,0.,0.));
#235=DIRECTION('ref_axis',(0.,-1.,0.));
#236=DIRECTION('',(-1.,0.,0.));
#237=DIRECTION('center_axis',(1.,0.,0.));
#238=DIRECTION('ref_axis',(0.,-1.,0.));
#239=DIRECTION('center_axis',(0.,1.,-1.26882631385732E-15));
#240=DIRECTION('ref_axis',(0.,1.26882631385732E-15,1.));
#241=DIRECTION('',(0.,-1.26882631385732E-15,-1.));
#242=DIRECTION('',(1.,0.,0.));
#243=DIRECTION('',(0.,1.26882631385732E-15,1.));
#244=DIRECTION('',(1.,0.,0.));
#245=DIRECTION('center_axis',(1.,0.,0.));
#246=DIRECTION('ref_axis',(0.,1.,3.21624529935327E-16));
#247=DIRECTION('center_axis',(-1.,0.,0.));
#248=DIRECTION('ref_axis',(0.,-1.,0.));
#249=DIRECTION('center_axis',(1.,0.,0.));
#250=DIRECTION('ref_axis',(0.,-1.,0.));
#251=DIRECTION('',(1.,0.,0.));
#252=DIRECTION('center_axis',(0.,1.44118714311004E-15,-1.));
#253=DIRECTION('ref_axis',(0.,1.,1.44118714311004E-15));
#254=DIRECTION('',(0.,-1.,-1.44118714311004E-15));
#255=DIRECTION('',(0.,1.,1.44118714311004E-15));
#256=DIRECTION('',(1.,0.,0.));
#257=DIRECTION('center_axis',(0.,-1.,0.));
#258=DIRECTION('ref_axis',(0.,0.,-1.));
#259=DIRECTION('',(0.,0.,-1.));
#260=DIRECTION('',(0.,0.,-1.));
#261=DIRECTION('',(1.,0.,0.));
#262=DIRECTION('center_axis',(0.,-1.80148392888754E-16,1.));
#263=DIRECTION('ref_axis',(0.,-1.,-1.80148392888754E-16));
#264=DIRECTION('',(0.,1.,1.80148392888754E-16));
#265=DIRECTION('',(0.,-1.,-1.80148392888754E-16));
#266=DIRECTION('',(1.,0.,0.));
#267=DIRECTION('center_axis',(1.,0.,0.));
#268=DIRECTION('ref_axis',(0.,1.,-5.66553889764798E-16));
#269=DIRECTION('center_axis',(-1.,0.,0.));
#270=DIRECTION('ref_axis',(0.,-1.,0.));
#271=DIRECTION('center_axis',(1.,0.,0.));
#272=DIRECTION('ref_axis',(0.,-1.,0.));
#273=DIRECTION('center_axis',(-1.,0.,0.));
#274=DIRECTION('ref_axis',(0.,-1.,0.));
#275=DIRECTION('center_axis',(-1.,0.,0.));
#276=DIRECTION('ref_axis',(0.,-1.,0.));
#277=CARTESIAN_POINT('',(0.,0.,0.));
#278=CARTESIAN_POINT('Origin',(-20.,37.325650057958,-42.6764705882353));
#279=CARTESIAN_POINT('',(-15.,40.325650057958,-42.6764705882353));
#280=CARTESIAN_POINT('Origin',(-15.,37.325650057958,-42.6764705882353));
#281=CARTESIAN_POINT('',(-20.,40.325650057958,-42.6764705882353));
#282=CARTESIAN_POINT('',(-20.,40.325650057958,-42.6764705882353));
#283=CARTESIAN_POINT('Origin',(-20.,37.325650057958,-42.6764705882353));
#284=CARTESIAN_POINT('Origin',(-20.,37.325650057958,8.32352941176464));
#285=CARTESIAN_POINT('',(-15.,40.325650057958,8.32352941176464));
#286=CARTESIAN_POINT('Origin',(-15.,37.325650057958,8.32352941176464));
#287=CARTESIAN_POINT('',(-20.,40.325650057958,8.32352941176464));
#288=CARTESIAN_POINT('',(-20.,40.325650057958,8.32352941176464));
#289=CARTESIAN_POINT('Origin',(-20.,37.325650057958,8.32352941176464));
#290=CARTESIAN_POINT('Origin',(-20.,37.325650057958,-34.6764705882353));
#291=CARTESIAN_POINT('',(-20.,37.325650057958,0.32352941176464));
#292=CARTESIAN_POINT('',(-20.,37.325650057958,-34.6764705882353));
#293=CARTESIAN_POINT('',(-20.,37.325650057958,0.32352941176464));
#294=CARTESIAN_POINT('',(-15.,37.325650057958,0.32352941176464));
#295=CARTESIAN_POINT('',(-20.,37.325650057958,0.32352941176464));
#296=CARTESIAN_POINT('',(-15.,37.325650057958,-34.6764705882353));
#297=CARTESIAN_POINT('',(-15.,37.325650057958,0.32352941176464));
#298=CARTESIAN_POINT('',(-20.,37.325650057958,-34.6764705882353));
#299=CARTESIAN_POINT('Origin',(-20.,37.325650057958,-42.6764705882353));
#300=CARTESIAN_POINT('',(-20.,37.325650057958,-50.6764705882353));
#301=CARTESIAN_POINT('Origin',(-20.,37.325650057958,-42.6764705882353));
#302=CARTESIAN_POINT('',(-15.,37.325650057958,-50.6764705882353));
#303=CARTESIAN_POINT('Origin',(-15.,37.325650057958,-42.6764705882353));
#304=CARTESIAN_POINT('',(-20.,37.325650057958,-50.6764705882353));
#305=CARTESIAN_POINT('Origin',(-20.,25.,-50.6764705882354));
#306=CARTESIAN_POINT('',(-20.,25.,-50.6764705882354));
#307=CARTESIAN_POINT('',(-20.,37.325650057958,-50.6764705882353));
#308=CARTESIAN_POINT('',(-15.,25.,-50.6764705882354));
#309=CARTESIAN_POINT('',(-15.,37.325650057958,-50.6764705882353));
#310=CARTESIAN_POINT('',(-20.,25.,-50.6764705882354));
#311=CARTESIAN_POINT('Origin',(-20.,25.,16.3235294117646));
#312=CARTESIAN_POINT('',(-20.,25.,16.3235294117646));
#313=CARTESIAN_POINT('',(-20.,25.,16.3235294117646));
#314=CARTESIAN_POINT('',(-15.,25.,16.3235294117646));
#315=CARTESIAN_POINT('',(-15.,25.,16.3235294117646));
#316=CARTESIAN_POINT('',(-20.,25.,16.3235294117646));
#317=CARTESIAN_POINT('Origin',(-20.,37.325650057958,16.3235294117646));
#318=CARTESIAN_POINT('',(-20.,37.325650057958,16.3235294117646));
#319=CARTESIAN_POINT('',(-20.,25.,16.3235294117646));
#320=CARTESIAN_POINT('',(-15.,37.325650057958,16.3235294117646));
#321=CARTESIAN_POINT('',(-15.,25.,16.3235294117646));
#322=CARTESIAN_POINT('',(-20.,37.325650057958,16.3235294117646));
#323=CARTESIAN_POINT('Origin',(-20.,37.325650057958,8.32352941176464));
#324=CARTESIAN_POINT('Origin',(-20.,37.325650057958,8.32352941176464));
#325=CARTESIAN_POINT('Origin',(-15.,37.325650057958,8.32352941176464));
#326=CARTESIAN_POINT('Origin',(-20.,35.162825028979,-17.1764705882354));
#327=CARTESIAN_POINT('Origin',(-15.,35.162825028979,-17.1764705882354));
#328=UNCERTAINTY_MEASURE_WITH_UNIT(LENGTH_MEASURE(0.01),#332,
'DISTANCE_ACCURACY_VALUE',
'Maximum model space distance between geometric entities at asserted c
onnectivities');
#329=UNCERTAINTY_MEASURE_WITH_UNIT(LENGTH_MEASURE(0.01),#332,
'DISTANCE_ACCURACY_VALUE',
'Maximum model space distance between geometric entities at asserted c
onnectivities');
#330=(
GEOMETRIC_REPRESENTATION_CONTEXT(3)
GLOBAL_UNCERTAINTY_ASSIGNED_CONTEXT((#328))
GLOBAL_UNIT_ASSIGNED_CONTEXT((#332,#334,#335))
REPRESENTATION_CONTEXT('','3D')
);
#331=(
GEOMETRIC_REPRESENTATION_CONTEXT(3)
GLOBAL_UNCERTAINTY_ASSIGNED_CONTEXT((#329))
GLOBAL_UNIT_ASSIGNED_CONTEXT((#332,#334,#335))
REPRESENTATION_CONTEXT('','3D')
);
#332=(
LENGTH_UNIT()
NAMED_UNIT(*)
SI_UNIT(.MILLI.,.METRE.)
);
#333=(
LENGTH_UNIT()
NAMED_UNIT(*)
SI_UNIT($,.METRE.)
);
#334=(
NAMED_UNIT(*)
PLANE_ANGLE_UNIT()
SI_UNIT($,.RADIAN.)
);
#335=(
NAMED_UNIT(*)
SI_UNIT($,.STERADIAN.)
SOLID_ANGLE_UNIT()
);
#336=SHAPE_DEFINITION_REPRESENTATION(#337,#338);
#337=PRODUCT_DEFINITION_SHAPE('',$,#340);
#338=SHAPE_REPRESENTATION('',(#204),#330);
#339=PRODUCT_DEFINITION_CONTEXT('part definition',#344,'design');
#340=PRODUCT_DEFINITION('FusionComponent','FusionComponent',#341,#339);
#341=PRODUCT_DEFINITION_FORMATION('',$,#346);
#342=PRODUCT_RELATED_PRODUCT_CATEGORY('FusionComponent',
'FusionComponent',(#346));
#343=APPLICATION_PROTOCOL_DEFINITION('international standard',
'automotive_design',2009,#344);
#344=APPLICATION_CONTEXT(
'Core Data for Automotive Mechanical Design Process');
#345=PRODUCT_CONTEXT('part definition',#344,'mechanical');
#346=PRODUCT('FusionComponent','FusionComponent',$,(#345));
#347=PRESENTATION_STYLE_ASSIGNMENT((#348));
#348=SURFACE_STYLE_USAGE(.BOTH.,#349);
#349=SURFACE_SIDE_STYLE('',(#350));
#350=SURFACE_STYLE_FILL_AREA(#351);
#351=FILL_AREA_STYLE('Acier - Satin\X\E9',(#352));
#352=FILL_AREA_STYLE_COLOUR('Acier - Satin\X\E9',#353);
#353=COLOUR_RGB('Acier - Satin\X\E9',0.627450980392157,0.627450980392157,
0.627450980392157);
ENDSEC;
END-ISO-10303-21;
