ISO-10303-21;
HEADER;
FILE_DESCRIPTION (( 'STEP AP214' ),
    '1' );
FILE_NAME ('PAN3.2-USI-010-A-Pneu.STEP',
    '2022-08-04T09:36:15',
    ( '' ),
    ( '' ),
    'SwSTEP 2.0',
    'SolidWorks 2021',
    '' );
FILE_SCHEMA (( 'AUTOMOTIVE_DESIGN' ));
ENDSEC;

DATA;
#1 =( NAMED_UNIT ( * ) PLANE_ANGLE_UNIT ( ) SI_UNIT ( $, .RADIAN. ) );
#2 = EDGE_CURVE ( 'NONE', #112, #195, #153, .T. ) ;
#3 = LINE ( 'NONE', #246, #27 ) ;
#4 = EDGE_LOOP ( 'NONE', ( #54, #294, #39, #176 ) ) ;
#5 = DIRECTION ( 'NONE',  ( 1.000000000000000000, 0.000000000000000000, 0.000000000000000000 ) ) ;
#6 = VERTEX_POINT ( 'NONE', #42 ) ;
#7 = CARTESIAN_POINT ( 'NONE',  ( 0.000000000000000000, 0.000000000000000000, 26.00000000000000000 ) ) ;
#8 = UNCERTAINTY_MEASURE_WITH_UNIT (LENGTH_MEASURE( 1.000000000000000082E-05 ), #38, 'distance_accuracy_value', 'NONE');
#9 = ORIENTED_EDGE ( 'NONE', *, *, #237, .T. ) ;
#10 = COLOUR_RGB ( '',0.8980392156862745390, 0.9176470588235293713, 0.9294117647058823817 ) ;
#11 =( LENGTH_UNIT ( ) NAMED_UNIT ( * ) SI_UNIT ( .MILLI., .METRE. ) );
#12 = ORIENTED_EDGE ( 'NONE', *, *, #254, .F. ) ;
#13 = FILL_AREA_STYLE_COLOUR ( '', #10 ) ;
#14 = ORIENTED_EDGE ( 'NONE', *, *, #242, .F. ) ;
#15 = AXIS2_PLACEMENT_3D ( 'NONE', #253, #310, #257 ) ;
#16 = CIRCLE ( 'NONE', #81, 11.59999999999999964 ) ;
#17 = ORIENTED_EDGE ( 'NONE', *, *, #265, .T. ) ;
#18 = APPLICATION_PROTOCOL_DEFINITION ( 'draft international standard', 'automotive_design', 1998, #143 ) ;
#19 = EDGE_LOOP ( 'NONE', ( #319, #331, #243, #118 ) ) ;
#20 = EDGE_CURVE ( 'NONE', #45, #297, #133, .T. ) ;
#21 = CARTESIAN_POINT ( 'NONE',  ( 0.000000000000000000, 0.000000000000000000, 1.000000000000000000 ) ) ;
#22 = FACE_BOUND ( 'NONE', #272, .T. ) ;
#23 = CIRCLE ( 'NONE', #146, 11.59999999999999964 ) ;
#24 = CARTESIAN_POINT ( 'NONE',  ( 0.000000000000000000, 0.000000000000000000, 1.999999999999998224 ) ) ;
#25 = CARTESIAN_POINT ( 'NONE',  ( 0.000000000000000000, 0.000000000000000000, 1.000000000000000888 ) ) ;
#26 =( NAMED_UNIT ( * ) PLANE_ANGLE_UNIT ( ) SI_UNIT ( $, .RADIAN. ) );
#27 = VECTOR ( 'NONE', #32, 1000.000000000000000 ) ;
#28 = EDGE_CURVE ( 'NONE', #6, #92, #327, .T. ) ;
#29 = DIRECTION ( 'NONE',  ( 0.000000000000000000, 0.000000000000000000, 1.000000000000000000 ) ) ;
#30 = DIRECTION ( 'NONE',  ( 0.000000000000000000, -1.000000000000000000, 0.000000000000000000 ) ) ;
#31 = ORIENTED_EDGE ( 'NONE', *, *, #235, .T. ) ;
#32 = DIRECTION ( 'NONE',  ( -0.000000000000000000, -0.000000000000000000, -1.000000000000000000 ) ) ;
#33 = EDGE_LOOP ( 'NONE', ( #269, #215, #31, #188 ) ) ;
#34 = AXIS2_PLACEMENT_3D ( 'NONE', #25, #314, #73 ) ;
#35 = CIRCLE ( 'NONE', #77, 1.000000000000000888 ) ;
#36 = DIRECTION ( 'NONE',  ( 1.000000000000000000, 0.000000000000000000, 0.000000000000000000 ) ) ;
#37 = ORIENTED_EDGE ( 'NONE', *, *, #2, .T. ) ;
#38 =( LENGTH_UNIT ( ) NAMED_UNIT ( * ) SI_UNIT ( .MILLI., .METRE. ) );
#39 = ORIENTED_EDGE ( 'NONE', *, *, #85, .F. ) ;
#40 = AXIS2_PLACEMENT_3D ( 'NONE', #343, #260, #131 ) ;
#41 = FACE_OUTER_BOUND ( 'NONE', #299, .T. ) ;
#42 = CARTESIAN_POINT ( 'NONE',  ( 12.59999999999999964, 1.543054966925664681E-15, 26.00000000000000000 ) ) ;
#43 = ORIENTED_EDGE ( 'NONE', *, *, #345, .F. ) ;
#44 =( LENGTH_UNIT ( ) NAMED_UNIT ( * ) SI_UNIT ( .MILLI., .METRE. ) );
#45 = VERTEX_POINT ( 'NONE', #279 ) ;
#46 = ADVANCED_FACE ( 'NONE', ( #281 ), #211, .F. ) ;
#47 = CYLINDRICAL_SURFACE ( 'NONE', #336, 13.59999999999999964 ) ;
#48 = ADVANCED_FACE ( 'NONE', ( #41, #127 ), #222, .T. ) ;
#49 = AXIS2_PLACEMENT_3D ( 'NONE', #334, #202, #71 ) ;
#50 = VECTOR ( 'NONE', #325, 1000.000000000000000 ) ;
#51 = CARTESIAN_POINT ( 'NONE',  ( -11.59999999999999964, 1.481822626968297304E-15, 1.000000000000000000 ) ) ;
#52 = CLOSED_SHELL ( 'NONE', ( #46, #154, #170, #93, #69, #197, #306, #288, #48, #129, #96 ) ) ;
#53 = DIRECTION ( 'NONE',  ( 0.000000000000000000, 0.000000000000000000, 1.000000000000000000 ) ) ;
#54 = ORIENTED_EDGE ( 'NONE', *, *, #158, .F. ) ;
#55 = DIRECTION ( 'NONE',  ( 1.000000000000000000, 0.000000000000000000, 0.000000000000000000 ) ) ;
#56 = ORIENTED_EDGE ( 'NONE', *, *, #229, .T. ) ;
#57 = FACE_OUTER_BOUND ( 'NONE', #19, .T. ) ;
#58 = EDGE_LOOP ( 'NONE', ( #193, #333, #340, #138 ) ) ;
#59 = AXIS2_PLACEMENT_3D ( 'NONE', #7, #321, #5 ) ;
#60 = CARTESIAN_POINT ( 'NONE',  ( 0.000000000000000000, 0.000000000000000000, 26.00000000000000000 ) ) ;
#61 = DIRECTION ( 'NONE',  ( -1.000000000000000000, 0.000000000000000000, 0.000000000000000000 ) ) ;
#62 = EDGE_LOOP ( 'NONE', ( #89, #12, #9, #245 ) ) ;
#63 = PRODUCT_DEFINITION_SHAPE ( 'NONE', 'NONE',  #183 ) ;
#64 = ORIENTED_EDGE ( 'NONE', *, *, #207, .F. ) ;
#65 = TOROIDAL_SURFACE ( 'NONE', #342, 11.59999999999999964, 1.000000000000000000 ) ;
#66 = AXIS2_PLACEMENT_3D ( 'NONE', #117, #88, #266 ) ;
#67 = ORIENTED_EDGE ( 'NONE', *, *, #295, .F. ) ;
#68 = DIRECTION ( 'NONE',  ( 0.000000000000000000, 0.000000000000000000, 1.000000000000000000 ) ) ;
#69 = ADVANCED_FACE ( 'NONE', ( #225 ), #227, .T. ) ;
#70 = CARTESIAN_POINT ( 'NONE',  ( 0.000000000000000000, 0.000000000000000000, 0.000000000000000000 ) ) ;
#71 = DIRECTION ( 'NONE',  ( -1.000000000000000000, 0.000000000000000000, 0.000000000000000000 ) ) ;
#72 = MANIFOLD_SOLID_BREP ( 'Congé1', #52 ) ;
#73 = DIRECTION ( 'NONE',  ( 1.000000000000000000, 0.000000000000000000, 0.000000000000000000 ) ) ;
#74 = DIRECTION ( 'NONE',  ( 1.000000000000000000, 0.000000000000000000, 0.000000000000000000 ) ) ;
#75 = AXIS2_PLACEMENT_3D ( 'NONE', #301, #29, #113 ) ;
#76 = FACE_OUTER_BOUND ( 'NONE', #141, .T. ) ;
#77 = AXIS2_PLACEMENT_3D ( 'NONE', #212, #189, #168 ) ;
#78 = DIRECTION ( 'NONE',  ( 1.000000000000000000, 0.000000000000000000, 0.000000000000000000 ) ) ;
#79 = EDGE_CURVE ( 'NONE', #173, #210, #98, .T. ) ;
#80 = FACE_OUTER_BOUND ( 'NONE', #33, .T. ) ;
#81 = AXIS2_PLACEMENT_3D ( 'NONE', #194, #53, #55 ) ;
#82 = EDGE_LOOP ( 'NONE', ( #324, #203, #166, #14 ) ) ;
#83 = PRESENTATION_LAYER_ASSIGNMENT (  '', '', ( #255 ) ) ;
#84 = LINE ( 'NONE', #136, #273 ) ;
#85 = EDGE_CURVE ( 'NONE', #210, #173, #223, .T. ) ;
#86 = DIRECTION ( 'NONE',  ( 0.000000000000000000, 0.000000000000000000, 1.000000000000000000 ) ) ;
#87 = EDGE_LOOP ( 'NONE', ( #43, #37, #271, #247 ) ) ;
#88 = DIRECTION ( 'NONE',  ( 0.000000000000000000, 0.000000000000000000, -1.000000000000000000 ) ) ;
#89 = ORIENTED_EDGE ( 'NONE', *, *, #2, .F. ) ;
#90 =( GEOMETRIC_REPRESENTATION_CONTEXT ( 3 ) GLOBAL_UNCERTAINTY_ASSIGNED_CONTEXT ( ( #8 ) ) GLOBAL_UNIT_ASSIGNED_CONTEXT ( ( #38, #1, #120 ) ) REPRESENTATION_CONTEXT ( 'NONE', 'WORKASPACE' ) );
#91 = DIRECTION ( 'NONE',  ( -1.000000000000000000, 0.000000000000000000, 0.000000000000000000 ) ) ;
#92 = VERTEX_POINT ( 'NONE', #285 ) ;
#93 = ADVANCED_FACE ( 'NONE', ( #182 ), #47, .T. ) ;
#94 = PRODUCT_DEFINITION_CONTEXT ( 'detailed design', #226, 'design' ) ;
#95 =( GEOMETRIC_REPRESENTATION_CONTEXT ( 3 ) GLOBAL_UNCERTAINTY_ASSIGNED_CONTEXT ( ( #147 ) ) GLOBAL_UNIT_ASSIGNED_CONTEXT ( ( #44, #26, #186 ) ) REPRESENTATION_CONTEXT ( 'NONE', 'WORKASPACE' ) );
#96 = ADVANCED_FACE ( 'NONE', ( #312 ), #65, .F. ) ;
#97 = ORIENTED_EDGE ( 'NONE', *, *, #124, .T. ) ;
#98 = CIRCLE ( 'NONE', #291, 12.59999999999999964 ) ;
#99 = AXIS2_PLACEMENT_3D ( 'NONE', #102, #130, #78 ) ;
#100 = CARTESIAN_POINT ( 'NONE',  ( 11.59999999999999964, 0.000000000000000000, 1.000000000000000000 ) ) ;
#101 = DIRECTION ( 'NONE',  ( 1.000000000000000000, 0.000000000000000000, -0.000000000000000000 ) ) ;
#102 = CARTESIAN_POINT ( 'NONE',  ( 0.000000000000000000, 0.000000000000000000, 0.000000000000000000 ) ) ;
#103 = CIRCLE ( 'NONE', #134, 12.59999999999999964 ) ;
#104 = CARTESIAN_POINT ( 'NONE',  ( 0.000000000000000000, 0.000000000000000000, 26.00000000000000000 ) ) ;
#105 = MECHANICAL_DESIGN_GEOMETRIC_PRESENTATION_REPRESENTATION (  '', ( #255 ), #152 ) ;
#106 = PRODUCT_RELATED_PRODUCT_CATEGORY ( 'part', '', ( #270 ) ) ;
#107 = CARTESIAN_POINT ( 'NONE',  ( 0.000000000000000000, 0.000000000000000000, 1.999999999999998224 ) ) ;
#108 = CARTESIAN_POINT ( 'NONE',  ( 0.000000000000000000, 0.000000000000000000, 0.000000000000000000 ) ) ;
#109 = DIRECTION ( 'NONE',  ( -0.000000000000000000, -0.000000000000000000, -1.000000000000000000 ) ) ;
#110 = CIRCLE ( 'NONE', #34, 2.000000000000000000 ) ;
#111 = CIRCLE ( 'NONE', #99, 13.59999999999999964 ) ;
#112 = VERTEX_POINT ( 'NONE', #287 ) ;
#113 = DIRECTION ( 'NONE',  ( 1.000000000000000000, 0.000000000000000000, -0.000000000000000000 ) ) ;
#114 = VERTEX_POINT ( 'NONE', #228 ) ;
#115 = DIRECTION ( 'NONE',  ( -0.000000000000000000, -0.000000000000000000, -1.000000000000000000 ) ) ;
#116 = VERTEX_POINT ( 'NONE', #100 ) ;
#117 = CARTESIAN_POINT ( 'NONE',  ( 0.000000000000000000, 0.000000000000000000, 0.000000000000000000 ) ) ;
#118 = ORIENTED_EDGE ( 'NONE', *, *, #79, .T. ) ;
#119 = CIRCLE ( 'NONE', #66, 2.000000000000000000 ) ;
#120 =( NAMED_UNIT ( * ) SI_UNIT ( $, .STERADIAN. ) SOLID_ANGLE_UNIT ( ) );
#121 = PRESENTATION_STYLE_ASSIGNMENT (( #339 ) ) ;
#122 = CARTESIAN_POINT ( 'NONE',  ( 0.000000000000000000, 0.000000000000000000, 1.000000000000000000 ) ) ;
#123 = DIRECTION ( 'NONE',  ( -0.000000000000000000, -0.000000000000000000, -1.000000000000000000 ) ) ;
#124 = EDGE_CURVE ( 'NONE', #297, #45, #110, .T. ) ;
#125 = CIRCLE ( 'NONE', #59, 13.59999999999999964 ) ;
#126 = DIRECTION ( 'NONE',  ( 0.000000000000000000, 0.000000000000000000, 1.000000000000000000 ) ) ;
#127 = FACE_BOUND ( 'NONE', #171, .T. ) ;
#128 = CARTESIAN_POINT ( 'NONE',  ( 0.000000000000000000, 0.000000000000000000, 26.00000000000000000 ) ) ;
#129 = ADVANCED_FACE ( 'NONE', ( #76 ), #162, .F. ) ;
#130 = DIRECTION ( 'NONE',  ( 0.000000000000000000, 0.000000000000000000, 1.000000000000000000 ) ) ;
#131 = DIRECTION ( 'NONE',  ( -1.000000000000000000, 0.000000000000000000, 0.000000000000000000 ) ) ;
#132 = CYLINDRICAL_SURFACE ( 'NONE', #40, 2.000000000000000000 ) ;
#133 = CIRCLE ( 'NONE', #156, 2.000000000000000000 ) ;
#134 = AXIS2_PLACEMENT_3D ( 'NONE', #268, #218, #214 ) ;
#135 = DIRECTION ( 'NONE',  ( -0.000000000000000000, -0.000000000000000000, -1.000000000000000000 ) ) ;
#136 = CARTESIAN_POINT ( 'NONE',  ( 12.59999999999999964, 1.543054966925664681E-15, 26.00000000000000000 ) ) ;
#137 = CARTESIAN_POINT ( 'NONE',  ( 0.000000000000000000, 0.000000000000000000, 26.00000000000000000 ) ) ;
#138 = ORIENTED_EDGE ( 'NONE', *, *, #79, .F. ) ;
#139 = CYLINDRICAL_SURFACE ( 'NONE', #240, 12.59999999999999964 ) ;
#140 = CIRCLE ( 'NONE', #184, 1.000000000000000000 ) ;
#141 = EDGE_LOOP ( 'NONE', ( #67, #144, #56, #17 ) ) ;
#142 = CARTESIAN_POINT ( 'NONE',  ( -2.000000000000000000, 0.000000000000000000, 1.000000000000000888 ) ) ;
#143 = APPLICATION_CONTEXT ( 'automotive_design' ) ;
#144 = ORIENTED_EDGE ( 'NONE', *, *, #124, .F. ) ;
#145 = EDGE_LOOP ( 'NONE', ( #326, #239 ) ) ;
#146 = AXIS2_PLACEMENT_3D ( 'NONE', #21, #232, #346 ) ;
#147 = UNCERTAINTY_MEASURE_WITH_UNIT (LENGTH_MEASURE( 1.000000000000000082E-05 ), #44, 'distance_accuracy_value', 'NONE');
#148 = DIRECTION ( 'NONE',  ( 1.000000000000000000, 0.000000000000000000, -0.000000000000000000 ) ) ;
#149 = FILL_AREA_STYLE ('',( #224 ) ) ;
#150 = SURFACE_SIDE_STYLE ('',( #280 ) ) ;
#151 = AXIS2_PLACEMENT_3D ( 'NONE', #60, #216, #36 ) ;
#152 =( GEOMETRIC_REPRESENTATION_CONTEXT ( 3 ) GLOBAL_UNCERTAINTY_ASSIGNED_CONTEXT ( ( #249 ) ) GLOBAL_UNIT_ASSIGNED_CONTEXT ( ( #11, #278, #256 ) ) REPRESENTATION_CONTEXT ( 'NONE', 'WORKASPACE' ) );
#153 = LINE ( 'NONE', #178, #341 ) ;
#154 = ADVANCED_FACE ( 'NONE', ( #80 ), #132, .F. ) ;
#155 = CARTESIAN_POINT ( 'NONE',  ( 0.000000000000000000, 0.000000000000000000, 26.00000000000000000 ) ) ;
#156 = AXIS2_PLACEMENT_3D ( 'NONE', #338, #200, #258 ) ;
#157 = DIRECTION ( 'NONE',  ( -1.000000000000000000, 0.000000000000000000, 0.000000000000000000 ) ) ;
#158 = EDGE_CURVE ( 'NONE', #177, #116, #23, .T. ) ;
#159 = DIRECTION ( 'NONE',  ( -0.000000000000000000, -0.000000000000000000, -1.000000000000000000 ) ) ;
#160 = CARTESIAN_POINT ( 'NONE',  ( 12.59999999999999964, 1.543054966925664681E-15, 1.999999999999998224 ) ) ;
#161 = CIRCLE ( 'NONE', #169, 13.59999999999999964 ) ;
#162 = CYLINDRICAL_SURFACE ( 'NONE', #167, 2.000000000000000000 ) ;
#163 = CARTESIAN_POINT ( 'NONE',  ( 11.59999999999999964, 0.000000000000000000, 1.999999999999998224 ) ) ;
#164 = ORIENTED_EDGE ( 'NONE', *, *, #20, .T. ) ;
#165 = DIRECTION ( 'NONE',  ( 0.000000000000000000, 0.000000000000000000, -1.000000000000000000 ) ) ;
#166 = ORIENTED_EDGE ( 'NONE', *, *, #85, .T. ) ;
#167 = AXIS2_PLACEMENT_3D ( 'NONE', #318, #159, #157 ) ;
#168 = DIRECTION ( 'NONE',  ( -1.000000000000000000, 1.224646799147351482E-16, 0.000000000000000000 ) ) ;
#169 = AXIS2_PLACEMENT_3D ( 'NONE', #236, #86, #190 ) ;
#170 = ADVANCED_FACE ( 'NONE', ( #290 ), #231, .F. ) ;
#171 = EDGE_LOOP ( 'NONE', ( #97, #164 ) ) ;
#172 = PRESENTATION_STYLE_ASSIGNMENT (( #337 ) ) ;
#173 = VERTEX_POINT ( 'NONE', #205 ) ;
#174 = APPLICATION_PROTOCOL_DEFINITION ( 'draft international standard', 'automotive_design', 1998, #226 ) ;
#175 = EDGE_LOOP ( 'NONE', ( #220, #250 ) ) ;
#176 = ORIENTED_EDGE ( 'NONE', *, *, #277, .F. ) ;
#177 = VERTEX_POINT ( 'NONE', #51 ) ;
#178 = CARTESIAN_POINT ( 'NONE',  ( 13.59999999999999964, 1.665519646840399829E-15, 26.00000000000000000 ) ) ;
#179 = AXIS2_PLACEMENT_3D ( 'NONE', #282, #68, #196 ) ;
#180 = FILL_AREA_STYLE ('',( #13 ) ) ;
#181 = DIRECTION ( 'NONE',  ( -1.000000000000000000, 0.000000000000000000, 0.000000000000000000 ) ) ;
#182 = FACE_OUTER_BOUND ( 'NONE', #87, .T. ) ;
#183 = PRODUCT_DEFINITION ( 'UNKNOWN', '', #233, #94 ) ;
#184 = AXIS2_PLACEMENT_3D ( 'NONE', #163, #30, #165 ) ;
#185 = DIRECTION ( 'NONE',  ( -0.000000000000000000, -0.000000000000000000, -1.000000000000000000 ) ) ;
#186 =( NAMED_UNIT ( * ) SI_UNIT ( $, .STERADIAN. ) SOLID_ANGLE_UNIT ( ) );
#187 = DIRECTION ( 'NONE',  ( 0.000000000000000000, 0.000000000000000000, -1.000000000000000000 ) ) ;
#188 = ORIENTED_EDGE ( 'NONE', *, *, #229, .F. ) ;
#189 = DIRECTION ( 'NONE',  ( 1.224646799147353207E-16, 1.000000000000000000, -0.000000000000000000 ) ) ;
#190 = DIRECTION ( 'NONE',  ( 1.000000000000000000, 0.000000000000000000, 0.000000000000000000 ) ) ;
#191 = LINE ( 'NONE', #238, #316 ) ;
#192 = AXIS2_PLACEMENT_3D ( 'NONE', #70, #201, #307 ) ;
#193 = ORIENTED_EDGE ( 'NONE', *, *, #303, .F. ) ;
#194 = CARTESIAN_POINT ( 'NONE',  ( 0.000000000000000000, 0.000000000000000000, 1.000000000000000000 ) ) ;
#195 = VERTEX_POINT ( 'NONE', #283 ) ;
#196 = DIRECTION ( 'NONE',  ( 1.000000000000000000, 0.000000000000000000, 0.000000000000000000 ) ) ;
#197 = ADVANCED_FACE ( 'NONE', ( #22, #289 ), #317, .T. ) ;
#198 = SURFACE_STYLE_FILL_AREA ( #180 ) ;
#199 = AXIS2_PLACEMENT_3D ( 'NONE', #155, #259, #101 ) ;
#200 = DIRECTION ( 'NONE',  ( -0.000000000000000000, -0.000000000000000000, -1.000000000000000000 ) ) ;
#201 = DIRECTION ( 'NONE',  ( 0.000000000000000000, 0.000000000000000000, 1.000000000000000000 ) ) ;
#202 = DIRECTION ( 'NONE',  ( -0.000000000000000000, -0.000000000000000000, -1.000000000000000000 ) ) ;
#203 = ORIENTED_EDGE ( 'NONE', *, *, #284, .T. ) ;
#204 = PRESENTATION_LAYER_ASSIGNMENT (  '', '', ( #267 ) ) ;
#205 = CARTESIAN_POINT ( 'NONE',  ( -12.59999999999999964, 0.000000000000000000, 1.999999999999998224 ) ) ;
#206 = DIRECTION ( 'NONE',  ( -0.000000000000000000, -0.000000000000000000, -1.000000000000000000 ) ) ;
#207 = EDGE_CURVE ( 'NONE', #217, #195, #111, .T. ) ;
#208 = DIRECTION ( 'NONE',  ( 0.000000000000000000, 0.000000000000000000, 1.000000000000000000 ) ) ;
#209 = CARTESIAN_POINT ( 'NONE',  ( -2.000000000000000000, 0.000000000000000000, 0.000000000000000000 ) ) ;
#210 = VERTEX_POINT ( 'NONE', #160 ) ;
#211 = TOROIDAL_SURFACE ( 'NONE', #15, 11.59999999999999964, 1.000000000000000000 ) ;
#212 = CARTESIAN_POINT ( 'NONE',  ( -11.59999999999999964, 1.420590287010929533E-15, 1.999999999999998224 ) ) ;
#213 = ORIENTED_EDGE ( 'NONE', *, *, #158, .T. ) ;
#214 = DIRECTION ( 'NONE',  ( 1.000000000000000000, 0.000000000000000000, 0.000000000000000000 ) ) ;
#215 = ORIENTED_EDGE ( 'NONE', *, *, #295, .T. ) ;
#216 = DIRECTION ( 'NONE',  ( 0.000000000000000000, 0.000000000000000000, 1.000000000000000000 ) ) ;
#217 = VERTEX_POINT ( 'NONE', #230 ) ;
#218 = DIRECTION ( 'NONE',  ( 0.000000000000000000, 0.000000000000000000, 1.000000000000000000 ) ) ;
#219 = EDGE_LOOP ( 'NONE', ( #64, #322 ) ) ;
#220 = ORIENTED_EDGE ( 'NONE', *, *, #265, .F. ) ;
#221 = PRODUCT_CONTEXT ( 'NONE', #143, 'mechanical' ) ;
#222 = PLANE ( 'NONE',  #309 ) ;
#223 = CIRCLE ( 'NONE', #286, 12.59999999999999964 ) ;
#224 = FILL_AREA_STYLE_COLOUR ( '', #329 ) ;
#225 = FACE_OUTER_BOUND ( 'NONE', #62, .T. ) ;
#226 = APPLICATION_CONTEXT ( 'automotive_design' ) ;
#227 = CYLINDRICAL_SURFACE ( 'NONE', #49, 13.59999999999999964 ) ;
#228 = CARTESIAN_POINT ( 'NONE',  ( 2.000000000000000000, 2.449293598294706414E-16, 0.000000000000000000 ) ) ;
#229 = EDGE_CURVE ( 'NONE', #297, #304, #3, .T. ) ;
#230 = CARTESIAN_POINT ( 'NONE',  ( -13.59999999999999964, 0.000000000000000000, 0.000000000000000000 ) ) ;
#231 = CYLINDRICAL_SURFACE ( 'NONE', #248, 12.59999999999999964 ) ;
#232 = DIRECTION ( 'NONE',  ( 0.000000000000000000, 0.000000000000000000, 1.000000000000000000 ) ) ;
#233 = PRODUCT_DEFINITION_FORMATION_WITH_SPECIFIED_SOURCE ( 'ANY', '', #270, .NOT_KNOWN. ) ;
#234 = DIRECTION ( 'NONE',  ( 1.000000000000000000, 0.000000000000000000, 0.000000000000000000 ) ) ;
#235 = EDGE_CURVE ( 'NONE', #114, #304, #328, .T. ) ;
#236 = CARTESIAN_POINT ( 'NONE',  ( 0.000000000000000000, 0.000000000000000000, 0.000000000000000000 ) ) ;
#237 = EDGE_CURVE ( 'NONE', #274, #217, #293, .T. ) ;
#238 = CARTESIAN_POINT ( 'NONE',  ( 2.000000000000000000, 2.449293598294706414E-16, 26.00100000000000122 ) ) ;
#239 = ORIENTED_EDGE ( 'NONE', *, *, #345, .T. ) ;
#240 = AXIS2_PLACEMENT_3D ( 'NONE', #137, #302, #61 ) ;
#241 = PLANE ( 'NONE',  #75 ) ;
#242 = EDGE_CURVE ( 'NONE', #92, #173, #244, .T. ) ;
#243 = ORIENTED_EDGE ( 'NONE', *, *, #242, .T. ) ;
#244 = LINE ( 'NONE', #323, #50 ) ;
#245 = ORIENTED_EDGE ( 'NONE', *, *, #207, .T. ) ;
#246 = CARTESIAN_POINT ( 'NONE',  ( -2.000000000000000000, 0.000000000000000000, 26.00100000000000122 ) ) ;
#247 = ORIENTED_EDGE ( 'NONE', *, *, #237, .F. ) ;
#248 = AXIS2_PLACEMENT_3D ( 'NONE', #104, #206, #181 ) ;
#249 = UNCERTAINTY_MEASURE_WITH_UNIT (LENGTH_MEASURE( 1.000000000000000082E-05 ), #11, 'distance_accuracy_value', 'NONE');
#250 = ORIENTED_EDGE ( 'NONE', *, *, #235, .F. ) ;
#251 = CARTESIAN_POINT ( 'NONE',  ( 0.000000000000000000, 0.000000000000000000, 1.999999999999998224 ) ) ;
#252 = ADVANCED_BREP_SHAPE_REPRESENTATION ( 'PAN3.2-USI-010-A-Pneu', ( #72, #192 ), #90 ) ;
#253 = CARTESIAN_POINT ( 'NONE',  ( 0.000000000000000000, 0.000000000000000000, 1.999999999999998224 ) ) ;
#254 = EDGE_CURVE ( 'NONE', #274, #112, #125, .T. ) ;
#255 = STYLED_ITEM ( 'NONE', ( #172 ), #252 ) ;
#256 =( NAMED_UNIT ( * ) SI_UNIT ( $, .STERADIAN. ) SOLID_ANGLE_UNIT ( ) );
#257 = DIRECTION ( 'NONE',  ( 1.000000000000000000, 0.000000000000000000, 0.000000000000000000 ) ) ;
#258 = DIRECTION ( 'NONE',  ( 1.000000000000000000, 0.000000000000000000, 0.000000000000000000 ) ) ;
#259 = DIRECTION ( 'NONE',  ( 0.000000000000000000, 0.000000000000000000, 1.000000000000000000 ) ) ;
#260 = DIRECTION ( 'NONE',  ( -0.000000000000000000, -0.000000000000000000, -1.000000000000000000 ) ) ;
#261 = DIRECTION ( 'NONE',  ( -1.000000000000000000, 0.000000000000000000, 0.000000000000000000 ) ) ;
#262 = FACE_BOUND ( 'NONE', #175, .T. ) ;
#263 = CARTESIAN_POINT ( 'NONE',  ( -13.59999999999999964, 0.000000000000000000, 26.00000000000000000 ) ) ;
#264 = ORIENTED_EDGE ( 'NONE', *, *, #275, .T. ) ;
#265 = EDGE_CURVE ( 'NONE', #304, #114, #119, .T. ) ;
#266 = DIRECTION ( 'NONE',  ( -1.000000000000000000, 0.000000000000000000, 0.000000000000000000 ) ) ;
#267 = STYLED_ITEM ( 'NONE', ( #121 ), #72 ) ;
#268 = CARTESIAN_POINT ( 'NONE',  ( 0.000000000000000000, 0.000000000000000000, 26.00000000000000000 ) ) ;
#269 = ORIENTED_EDGE ( 'NONE', *, *, #20, .F. ) ;
#270 = PRODUCT ( 'PAN3.2-USI-010-A-Pneu', 'PAN3.2-USI-010-A-Pneu', '', ( #221 ) ) ;
#271 = ORIENTED_EDGE ( 'NONE', *, *, #313, .T. ) ;
#272 = EDGE_LOOP ( 'NONE', ( #276, #308 ) ) ;
#273 = VECTOR ( 'NONE', #115, 1000.000000000000000 ) ;
#274 = VERTEX_POINT ( 'NONE', #298 ) ;
#275 = EDGE_CURVE ( 'NONE', #116, #177, #16, .T. ) ;
#276 = ORIENTED_EDGE ( 'NONE', *, *, #335, .F. ) ;
#277 = EDGE_CURVE ( 'NONE', #116, #210, #140, .T. ) ;
#278 =( NAMED_UNIT ( * ) PLANE_ANGLE_UNIT ( ) SI_UNIT ( $, .RADIAN. ) );
#279 = CARTESIAN_POINT ( 'NONE',  ( 2.000000000000000000, 2.449293598294706414E-16, 1.000000000000000888 ) ) ;
#280 = SURFACE_STYLE_FILL_AREA ( #149 ) ;
#281 = FACE_OUTER_BOUND ( 'NONE', #4, .T. ) ;
#282 = CARTESIAN_POINT ( 'NONE',  ( 0.000000000000000000, 0.000000000000000000, 26.00000000000000000 ) ) ;
#283 = CARTESIAN_POINT ( 'NONE',  ( 13.59999999999999964, 1.665519646840399829E-15, 0.000000000000000000 ) ) ;
#284 = EDGE_CURVE ( 'NONE', #6, #210, #84, .T. ) ;
#285 = CARTESIAN_POINT ( 'NONE',  ( -12.59999999999999964, 0.000000000000000000, 26.00000000000000000 ) ) ;
#286 = AXIS2_PLACEMENT_3D ( 'NONE', #107, #185, #74 ) ;
#287 = CARTESIAN_POINT ( 'NONE',  ( 13.59999999999999964, 1.665519646840399829E-15, 26.00000000000000000 ) ) ;
#288 = ADVANCED_FACE ( 'NONE', ( #57 ), #139, .F. ) ;
#289 = FACE_OUTER_BOUND ( 'NONE', #145, .T. ) ;
#290 = FACE_OUTER_BOUND ( 'NONE', #82, .T. ) ;
#291 = AXIS2_PLACEMENT_3D ( 'NONE', #251, #135, #234 ) ;
#292 = VECTOR ( 'NONE', #330, 1000.000000000000000 ) ;
#293 = LINE ( 'NONE', #263, #292 ) ;
#294 = ORIENTED_EDGE ( 'NONE', *, *, #303, .T. ) ;
#295 = EDGE_CURVE ( 'NONE', #45, #114, #191, .T. ) ;
#296 = FACE_OUTER_BOUND ( 'NONE', #219, .T. ) ;
#297 = VERTEX_POINT ( 'NONE', #142 ) ;
#298 = CARTESIAN_POINT ( 'NONE',  ( -13.59999999999999964, 0.000000000000000000, 26.00000000000000000 ) ) ;
#299 = EDGE_LOOP ( 'NONE', ( #264, #213 ) ) ;
#300 = CIRCLE ( 'NONE', #151, 13.59999999999999964 ) ;
#301 = CARTESIAN_POINT ( 'NONE',  ( 0.000000000000000000, 0.000000000000000000, 0.000000000000000000 ) ) ;
#302 = DIRECTION ( 'NONE',  ( -0.000000000000000000, -0.000000000000000000, -1.000000000000000000 ) ) ;
#303 = EDGE_CURVE ( 'NONE', #177, #173, #35, .T. ) ;
#304 = VERTEX_POINT ( 'NONE', #209 ) ;
#305 = SURFACE_SIDE_STYLE ('',( #198 ) ) ;
#306 = ADVANCED_FACE ( 'NONE', ( #262, #296 ), #241, .F. ) ;
#307 = DIRECTION ( 'NONE',  ( 1.000000000000000000, 0.000000000000000000, 0.000000000000000000 ) ) ;
#308 = ORIENTED_EDGE ( 'NONE', *, *, #28, .F. ) ;
#309 = AXIS2_PLACEMENT_3D ( 'NONE', #122, #126, #148 ) ;
#310 = DIRECTION ( 'NONE',  ( 0.000000000000000000, 0.000000000000000000, 1.000000000000000000 ) ) ;
#311 = AXIS2_PLACEMENT_3D ( 'NONE', #108, #187, #91 ) ;
#312 = FACE_OUTER_BOUND ( 'NONE', #58, .T. ) ;
#313 = EDGE_CURVE ( 'NONE', #195, #217, #161, .T. ) ;
#314 = DIRECTION ( 'NONE',  ( -0.000000000000000000, -0.000000000000000000, -1.000000000000000000 ) ) ;
#315 = DIRECTION ( 'NONE',  ( -0.000000000000000000, -0.000000000000000000, -1.000000000000000000 ) ) ;
#316 = VECTOR ( 'NONE', #109, 1000.000000000000000 ) ;
#317 = PLANE ( 'NONE',  #199 ) ;
#318 = CARTESIAN_POINT ( 'NONE',  ( 0.000000000000000000, 0.000000000000000000, 26.00100000000000122 ) ) ;
#319 = ORIENTED_EDGE ( 'NONE', *, *, #284, .F. ) ;
#320 = MECHANICAL_DESIGN_GEOMETRIC_PRESENTATION_REPRESENTATION (  '', ( #267 ), #95 ) ;
#321 = DIRECTION ( 'NONE',  ( 0.000000000000000000, 0.000000000000000000, 1.000000000000000000 ) ) ;
#322 = ORIENTED_EDGE ( 'NONE', *, *, #313, .F. ) ;
#323 = CARTESIAN_POINT ( 'NONE',  ( -12.59999999999999964, 0.000000000000000000, 26.00000000000000000 ) ) ;
#324 = ORIENTED_EDGE ( 'NONE', *, *, #335, .T. ) ;
#325 = DIRECTION ( 'NONE',  ( -0.000000000000000000, -0.000000000000000000, -1.000000000000000000 ) ) ;
#326 = ORIENTED_EDGE ( 'NONE', *, *, #254, .T. ) ;
#327 = CIRCLE ( 'NONE', #179, 12.59999999999999964 ) ;
#328 = CIRCLE ( 'NONE', #311, 2.000000000000000000 ) ;
#329 = COLOUR_RGB ( '',0.8980392156862745390, 0.9176470588235293713, 0.9294117647058823817 ) ;
#330 = DIRECTION ( 'NONE',  ( -0.000000000000000000, -0.000000000000000000, -1.000000000000000000 ) ) ;
#331 = ORIENTED_EDGE ( 'NONE', *, *, #28, .T. ) ;
#332 = SHAPE_DEFINITION_REPRESENTATION ( #63, #252 ) ;
#333 = ORIENTED_EDGE ( 'NONE', *, *, #275, .F. ) ;
#334 = CARTESIAN_POINT ( 'NONE',  ( 0.000000000000000000, 0.000000000000000000, 26.00000000000000000 ) ) ;
#335 = EDGE_CURVE ( 'NONE', #92, #6, #103, .T. ) ;
#336 = AXIS2_PLACEMENT_3D ( 'NONE', #128, #315, #261 ) ;
#337 = SURFACE_STYLE_USAGE ( .BOTH. , #150 ) ;
#338 = CARTESIAN_POINT ( 'NONE',  ( 0.000000000000000000, 0.000000000000000000, 1.000000000000000888 ) ) ;
#339 = SURFACE_STYLE_USAGE ( .BOTH. , #305 ) ;
#340 = ORIENTED_EDGE ( 'NONE', *, *, #277, .T. ) ;
#341 = VECTOR ( 'NONE', #123, 1000.000000000000000 ) ;
#342 = AXIS2_PLACEMENT_3D ( 'NONE', #24, #208, #344 ) ;
#343 = CARTESIAN_POINT ( 'NONE',  ( 0.000000000000000000, 0.000000000000000000, 26.00100000000000122 ) ) ;
#344 = DIRECTION ( 'NONE',  ( 1.000000000000000000, 0.000000000000000000, 0.000000000000000000 ) ) ;
#345 = EDGE_CURVE ( 'NONE', #112, #274, #300, .T. ) ;
#346 = DIRECTION ( 'NONE',  ( 1.000000000000000000, 0.000000000000000000, 0.000000000000000000 ) ) ;
ENDSEC;
END-ISO-10303-21;
