ISO-10303-21;
HEADER;
/* Generated by software containing ST-Developer
 * from STEP Tools, Inc. (www.steptools.com) 
 */
/* OPTION: using custom renumber hook */

FILE_DESCRIPTION(
/* description */ ('STEP AP242',
'CAx-IF Rec.Pracs.---Representation and Presentation of Product Manufa
cturing Information (PMI)---4.0---2014-10-13',
'CAx-IF Rec.Pracs.---3D Tessellated Geometry---0.4---2014-09-14','2;1'),

/* implementation_level */ '2;1');

FILE_NAME(
/* name */ '62f5129abb189327c7e01c4c',
/* time_stamp */ '2022-08-11T14:30:51+00:00',
/* author */ (''),
/* organization */ (''),
/* preprocessor_version */ 'ST-DEVELOPER v18.102',
/* originating_system */ '  ',
/* authorisation */ '  ');

FILE_SCHEMA (('AP242_MANAGED_MODEL_BASED_3D_ENGINEERING_MIM_LF { 1 0 10303 442 1 1 4 }'));
ENDSEC;

DATA;
#10=SHAPE_REPRESENTATION_RELATIONSHIP('','',#435,#11);
#11=ADVANCED_BREP_SHAPE_REPRESENTATION('',(#433),#721);
#12=CYLINDRICAL_SURFACE('',#475,0.0022);
#13=CYLINDRICAL_SURFACE('',#476,0.0022);
#14=CYLINDRICAL_SURFACE('',#477,0.0022);
#15=CYLINDRICAL_SURFACE('',#478,0.0022);
#16=CYLINDRICAL_SURFACE('',#479,0.0022);
#17=CYLINDRICAL_SURFACE('',#480,0.0022);
#18=CYLINDRICAL_SURFACE('',#481,0.0022);
#19=CYLINDRICAL_SURFACE('',#482,0.0022);
#20=CYLINDRICAL_SURFACE('',#483,0.0022);
#21=CYLINDRICAL_SURFACE('',#484,0.0022);
#22=CYLINDRICAL_SURFACE('',#485,0.0027);
#23=CYLINDRICAL_SURFACE('',#486,0.0022);
#24=CYLINDRICAL_SURFACE('',#487,0.0027);
#25=CYLINDRICAL_SURFACE('',#488,0.0027);
#26=CYLINDRICAL_SURFACE('',#489,0.0022);
#27=CYLINDRICAL_SURFACE('',#490,0.0027);
#28=LINE('',#647,#40);
#29=LINE('',#650,#41);
#30=LINE('',#652,#42);
#31=LINE('',#654,#43);
#32=LINE('',#688,#44);
#33=LINE('',#691,#45);
#34=LINE('',#693,#46);
#35=LINE('',#695,#47);
#36=LINE('',#697,#48);
#37=LINE('',#698,#49);
#38=LINE('',#700,#50);
#39=LINE('',#702,#51);
#40=VECTOR('',#527,1.);
#41=VECTOR('',#528,1.);
#42=VECTOR('',#529,1.);
#43=VECTOR('',#530,1.);
#44=VECTOR('',#565,1.);
#45=VECTOR('',#566,1.);
#46=VECTOR('',#567,1.);
#47=VECTOR('',#568,1.);
#48=VECTOR('',#571,1.);
#49=VECTOR('',#572,1.);
#50=VECTOR('',#575,1.);
#51=VECTOR('',#578,1.);
#52=ORIENTED_EDGE('',*,*,#140,.T.);
#53=ORIENTED_EDGE('',*,*,#141,.T.);
#54=ORIENTED_EDGE('',*,*,#142,.T.);
#55=ORIENTED_EDGE('',*,*,#143,.T.);
#56=ORIENTED_EDGE('',*,*,#144,.T.);
#57=ORIENTED_EDGE('',*,*,#145,.T.);
#58=ORIENTED_EDGE('',*,*,#146,.T.);
#59=ORIENTED_EDGE('',*,*,#147,.T.);
#60=ORIENTED_EDGE('',*,*,#148,.T.);
#61=ORIENTED_EDGE('',*,*,#149,.T.);
#62=ORIENTED_EDGE('',*,*,#150,.T.);
#63=ORIENTED_EDGE('',*,*,#151,.T.);
#64=ORIENTED_EDGE('',*,*,#152,.T.);
#65=ORIENTED_EDGE('',*,*,#153,.T.);
#66=ORIENTED_EDGE('',*,*,#154,.T.);
#67=ORIENTED_EDGE('',*,*,#155,.T.);
#68=ORIENTED_EDGE('',*,*,#156,.F.);
#69=ORIENTED_EDGE('',*,*,#157,.T.);
#70=ORIENTED_EDGE('',*,*,#158,.T.);
#71=ORIENTED_EDGE('',*,*,#159,.F.);
#72=ORIENTED_EDGE('',*,*,#160,.T.);
#73=ORIENTED_EDGE('',*,*,#161,.T.);
#74=ORIENTED_EDGE('',*,*,#162,.T.);
#75=ORIENTED_EDGE('',*,*,#163,.T.);
#76=ORIENTED_EDGE('',*,*,#164,.T.);
#77=ORIENTED_EDGE('',*,*,#165,.T.);
#78=ORIENTED_EDGE('',*,*,#166,.T.);
#79=ORIENTED_EDGE('',*,*,#167,.T.);
#80=ORIENTED_EDGE('',*,*,#168,.T.);
#81=ORIENTED_EDGE('',*,*,#169,.T.);
#82=ORIENTED_EDGE('',*,*,#170,.T.);
#83=ORIENTED_EDGE('',*,*,#171,.T.);
#84=ORIENTED_EDGE('',*,*,#172,.T.);
#85=ORIENTED_EDGE('',*,*,#173,.T.);
#86=ORIENTED_EDGE('',*,*,#174,.T.);
#87=ORIENTED_EDGE('',*,*,#175,.T.);
#88=ORIENTED_EDGE('',*,*,#176,.T.);
#89=ORIENTED_EDGE('',*,*,#177,.T.);
#90=ORIENTED_EDGE('',*,*,#178,.T.);
#91=ORIENTED_EDGE('',*,*,#179,.T.);
#92=ORIENTED_EDGE('',*,*,#156,.T.);
#93=ORIENTED_EDGE('',*,*,#180,.T.);
#94=ORIENTED_EDGE('',*,*,#176,.F.);
#95=ORIENTED_EDGE('',*,*,#181,.F.);
#96=ORIENTED_EDGE('',*,*,#159,.T.);
#97=ORIENTED_EDGE('',*,*,#182,.T.);
#98=ORIENTED_EDGE('',*,*,#177,.F.);
#99=ORIENTED_EDGE('',*,*,#180,.F.);
#100=ORIENTED_EDGE('',*,*,#158,.F.);
#101=ORIENTED_EDGE('',*,*,#183,.T.);
#102=ORIENTED_EDGE('',*,*,#178,.F.);
#103=ORIENTED_EDGE('',*,*,#182,.F.);
#104=ORIENTED_EDGE('',*,*,#157,.F.);
#105=ORIENTED_EDGE('',*,*,#181,.T.);
#106=ORIENTED_EDGE('',*,*,#179,.F.);
#107=ORIENTED_EDGE('',*,*,#183,.F.);
#108=ORIENTED_EDGE('',*,*,#140,.F.);
#109=ORIENTED_EDGE('',*,*,#160,.F.);
#110=ORIENTED_EDGE('',*,*,#141,.F.);
#111=ORIENTED_EDGE('',*,*,#161,.F.);
#112=ORIENTED_EDGE('',*,*,#142,.F.);
#113=ORIENTED_EDGE('',*,*,#162,.F.);
#114=ORIENTED_EDGE('',*,*,#143,.F.);
#115=ORIENTED_EDGE('',*,*,#163,.F.);
#116=ORIENTED_EDGE('',*,*,#144,.F.);
#117=ORIENTED_EDGE('',*,*,#164,.F.);
#118=ORIENTED_EDGE('',*,*,#145,.F.);
#119=ORIENTED_EDGE('',*,*,#165,.F.);
#120=ORIENTED_EDGE('',*,*,#146,.F.);
#121=ORIENTED_EDGE('',*,*,#166,.F.);
#122=ORIENTED_EDGE('',*,*,#147,.F.);
#123=ORIENTED_EDGE('',*,*,#167,.F.);
#124=ORIENTED_EDGE('',*,*,#148,.F.);
#125=ORIENTED_EDGE('',*,*,#168,.F.);
#126=ORIENTED_EDGE('',*,*,#149,.F.);
#127=ORIENTED_EDGE('',*,*,#169,.F.);
#128=ORIENTED_EDGE('',*,*,#150,.F.);
#129=ORIENTED_EDGE('',*,*,#170,.F.);
#130=ORIENTED_EDGE('',*,*,#151,.F.);
#131=ORIENTED_EDGE('',*,*,#171,.F.);
#132=ORIENTED_EDGE('',*,*,#152,.F.);
#133=ORIENTED_EDGE('',*,*,#172,.F.);
#134=ORIENTED_EDGE('',*,*,#153,.F.);
#135=ORIENTED_EDGE('',*,*,#173,.F.);
#136=ORIENTED_EDGE('',*,*,#154,.F.);
#137=ORIENTED_EDGE('',*,*,#174,.F.);
#138=ORIENTED_EDGE('',*,*,#155,.F.);
#139=ORIENTED_EDGE('',*,*,#175,.F.);
#140=EDGE_CURVE('',#184,#184,#224,.T.);
#141=EDGE_CURVE('',#185,#185,#225,.T.);
#142=EDGE_CURVE('',#186,#186,#226,.T.);
#143=EDGE_CURVE('',#187,#187,#227,.T.);
#144=EDGE_CURVE('',#188,#188,#228,.T.);
#145=EDGE_CURVE('',#189,#189,#229,.T.);
#146=EDGE_CURVE('',#190,#190,#230,.T.);
#147=EDGE_CURVE('',#191,#191,#231,.T.);
#148=EDGE_CURVE('',#192,#192,#232,.T.);
#149=EDGE_CURVE('',#193,#193,#233,.T.);
#150=EDGE_CURVE('',#194,#194,#234,.T.);
#151=EDGE_CURVE('',#195,#195,#235,.T.);
#152=EDGE_CURVE('',#196,#196,#236,.T.);
#153=EDGE_CURVE('',#197,#197,#237,.T.);
#154=EDGE_CURVE('',#198,#198,#238,.T.);
#155=EDGE_CURVE('',#199,#199,#239,.T.);
#156=EDGE_CURVE('',#200,#201,#28,.T.);
#157=EDGE_CURVE('',#200,#202,#29,.T.);
#158=EDGE_CURVE('',#202,#203,#30,.T.);
#159=EDGE_CURVE('',#201,#203,#31,.T.);
#160=EDGE_CURVE('',#204,#204,#240,.T.);
#161=EDGE_CURVE('',#205,#205,#241,.T.);
#162=EDGE_CURVE('',#206,#206,#242,.T.);
#163=EDGE_CURVE('',#207,#207,#243,.T.);
#164=EDGE_CURVE('',#208,#208,#244,.T.);
#165=EDGE_CURVE('',#209,#209,#245,.T.);
#166=EDGE_CURVE('',#210,#210,#246,.T.);
#167=EDGE_CURVE('',#211,#211,#247,.T.);
#168=EDGE_CURVE('',#212,#212,#248,.T.);
#169=EDGE_CURVE('',#213,#213,#249,.T.);
#170=EDGE_CURVE('',#214,#214,#250,.T.);
#171=EDGE_CURVE('',#215,#215,#251,.T.);
#172=EDGE_CURVE('',#216,#216,#252,.T.);
#173=EDGE_CURVE('',#217,#217,#253,.T.);
#174=EDGE_CURVE('',#218,#218,#254,.T.);
#175=EDGE_CURVE('',#219,#219,#255,.T.);
#176=EDGE_CURVE('',#220,#221,#32,.T.);
#177=EDGE_CURVE('',#221,#222,#33,.T.);
#178=EDGE_CURVE('',#222,#223,#34,.T.);
#179=EDGE_CURVE('',#223,#220,#35,.T.);
#180=EDGE_CURVE('',#201,#221,#36,.T.);
#181=EDGE_CURVE('',#200,#220,#37,.T.);
#182=EDGE_CURVE('',#203,#222,#38,.T.);
#183=EDGE_CURVE('',#202,#223,#39,.T.);
#184=VERTEX_POINT('',#616);
#185=VERTEX_POINT('',#618);
#186=VERTEX_POINT('',#620);
#187=VERTEX_POINT('',#622);
#188=VERTEX_POINT('',#624);
#189=VERTEX_POINT('',#626);
#190=VERTEX_POINT('',#628);
#191=VERTEX_POINT('',#630);
#192=VERTEX_POINT('',#632);
#193=VERTEX_POINT('',#634);
#194=VERTEX_POINT('',#636);
#195=VERTEX_POINT('',#638);
#196=VERTEX_POINT('',#640);
#197=VERTEX_POINT('',#642);
#198=VERTEX_POINT('',#644);
#199=VERTEX_POINT('',#646);
#200=VERTEX_POINT('',#648);
#201=VERTEX_POINT('',#649);
#202=VERTEX_POINT('',#651);
#203=VERTEX_POINT('',#653);
#204=VERTEX_POINT('',#657);
#205=VERTEX_POINT('',#659);
#206=VERTEX_POINT('',#661);
#207=VERTEX_POINT('',#663);
#208=VERTEX_POINT('',#665);
#209=VERTEX_POINT('',#667);
#210=VERTEX_POINT('',#669);
#211=VERTEX_POINT('',#671);
#212=VERTEX_POINT('',#673);
#213=VERTEX_POINT('',#675);
#214=VERTEX_POINT('',#677);
#215=VERTEX_POINT('',#679);
#216=VERTEX_POINT('',#681);
#217=VERTEX_POINT('',#683);
#218=VERTEX_POINT('',#685);
#219=VERTEX_POINT('',#687);
#220=VERTEX_POINT('',#689);
#221=VERTEX_POINT('',#690);
#222=VERTEX_POINT('',#692);
#223=VERTEX_POINT('',#694);
#224=CIRCLE('',#438,0.0022);
#225=CIRCLE('',#439,0.0022);
#226=CIRCLE('',#440,0.0022);
#227=CIRCLE('',#441,0.0022);
#228=CIRCLE('',#442,0.0022);
#229=CIRCLE('',#443,0.0022);
#230=CIRCLE('',#444,0.0022);
#231=CIRCLE('',#445,0.0022);
#232=CIRCLE('',#446,0.0022);
#233=CIRCLE('',#447,0.0022);
#234=CIRCLE('',#448,0.0027);
#235=CIRCLE('',#449,0.0022);
#236=CIRCLE('',#450,0.0027);
#237=CIRCLE('',#451,0.0027);
#238=CIRCLE('',#452,0.0022);
#239=CIRCLE('',#453,0.0027);
#240=CIRCLE('',#455,0.0022);
#241=CIRCLE('',#456,0.0022);
#242=CIRCLE('',#457,0.0022);
#243=CIRCLE('',#458,0.0022);
#244=CIRCLE('',#459,0.0022);
#245=CIRCLE('',#460,0.0022);
#246=CIRCLE('',#461,0.0022);
#247=CIRCLE('',#462,0.0022);
#248=CIRCLE('',#463,0.0022);
#249=CIRCLE('',#464,0.0022);
#250=CIRCLE('',#465,0.0027);
#251=CIRCLE('',#466,0.0022);
#252=CIRCLE('',#467,0.0027);
#253=CIRCLE('',#468,0.0027);
#254=CIRCLE('',#469,0.0022);
#255=CIRCLE('',#470,0.0027);
#256=EDGE_LOOP('',(#52));
#257=EDGE_LOOP('',(#53));
#258=EDGE_LOOP('',(#54));
#259=EDGE_LOOP('',(#55));
#260=EDGE_LOOP('',(#56));
#261=EDGE_LOOP('',(#57));
#262=EDGE_LOOP('',(#58));
#263=EDGE_LOOP('',(#59));
#264=EDGE_LOOP('',(#60));
#265=EDGE_LOOP('',(#61));
#266=EDGE_LOOP('',(#62));
#267=EDGE_LOOP('',(#63));
#268=EDGE_LOOP('',(#64));
#269=EDGE_LOOP('',(#65));
#270=EDGE_LOOP('',(#66));
#271=EDGE_LOOP('',(#67));
#272=EDGE_LOOP('',(#68,#69,#70,#71));
#273=EDGE_LOOP('',(#72));
#274=EDGE_LOOP('',(#73));
#275=EDGE_LOOP('',(#74));
#276=EDGE_LOOP('',(#75));
#277=EDGE_LOOP('',(#76));
#278=EDGE_LOOP('',(#77));
#279=EDGE_LOOP('',(#78));
#280=EDGE_LOOP('',(#79));
#281=EDGE_LOOP('',(#80));
#282=EDGE_LOOP('',(#81));
#283=EDGE_LOOP('',(#82));
#284=EDGE_LOOP('',(#83));
#285=EDGE_LOOP('',(#84));
#286=EDGE_LOOP('',(#85));
#287=EDGE_LOOP('',(#86));
#288=EDGE_LOOP('',(#87));
#289=EDGE_LOOP('',(#88,#89,#90,#91));
#290=EDGE_LOOP('',(#92,#93,#94,#95));
#291=EDGE_LOOP('',(#96,#97,#98,#99));
#292=EDGE_LOOP('',(#100,#101,#102,#103));
#293=EDGE_LOOP('',(#104,#105,#106,#107));
#294=EDGE_LOOP('',(#108));
#295=EDGE_LOOP('',(#109));
#296=EDGE_LOOP('',(#110));
#297=EDGE_LOOP('',(#111));
#298=EDGE_LOOP('',(#112));
#299=EDGE_LOOP('',(#113));
#300=EDGE_LOOP('',(#114));
#301=EDGE_LOOP('',(#115));
#302=EDGE_LOOP('',(#116));
#303=EDGE_LOOP('',(#117));
#304=EDGE_LOOP('',(#118));
#305=EDGE_LOOP('',(#119));
#306=EDGE_LOOP('',(#120));
#307=EDGE_LOOP('',(#121));
#308=EDGE_LOOP('',(#122));
#309=EDGE_LOOP('',(#123));
#310=EDGE_LOOP('',(#124));
#311=EDGE_LOOP('',(#125));
#312=EDGE_LOOP('',(#126));
#313=EDGE_LOOP('',(#127));
#314=EDGE_LOOP('',(#128));
#315=EDGE_LOOP('',(#129));
#316=EDGE_LOOP('',(#130));
#317=EDGE_LOOP('',(#131));
#318=EDGE_LOOP('',(#132));
#319=EDGE_LOOP('',(#133));
#320=EDGE_LOOP('',(#134));
#321=EDGE_LOOP('',(#135));
#322=EDGE_LOOP('',(#136));
#323=EDGE_LOOP('',(#137));
#324=EDGE_LOOP('',(#138));
#325=EDGE_LOOP('',(#139));
#326=FACE_BOUND('',#256,.T.);
#327=FACE_BOUND('',#257,.T.);
#328=FACE_BOUND('',#258,.T.);
#329=FACE_BOUND('',#259,.T.);
#330=FACE_BOUND('',#260,.T.);
#331=FACE_BOUND('',#261,.T.);
#332=FACE_BOUND('',#262,.T.);
#333=FACE_BOUND('',#263,.T.);
#334=FACE_BOUND('',#264,.T.);
#335=FACE_BOUND('',#265,.T.);
#336=FACE_BOUND('',#266,.T.);
#337=FACE_BOUND('',#267,.T.);
#338=FACE_BOUND('',#268,.T.);
#339=FACE_BOUND('',#269,.T.);
#340=FACE_BOUND('',#270,.T.);
#341=FACE_BOUND('',#271,.T.);
#342=FACE_BOUND('',#272,.T.);
#343=FACE_BOUND('',#273,.T.);
#344=FACE_BOUND('',#274,.T.);
#345=FACE_BOUND('',#275,.T.);
#346=FACE_BOUND('',#276,.T.);
#347=FACE_BOUND('',#277,.T.);
#348=FACE_BOUND('',#278,.T.);
#349=FACE_BOUND('',#279,.T.);
#350=FACE_BOUND('',#280,.T.);
#351=FACE_BOUND('',#281,.T.);
#352=FACE_BOUND('',#282,.T.);
#353=FACE_BOUND('',#283,.T.);
#354=FACE_BOUND('',#284,.T.);
#355=FACE_BOUND('',#285,.T.);
#356=FACE_BOUND('',#286,.T.);
#357=FACE_BOUND('',#287,.T.);
#358=FACE_BOUND('',#288,.T.);
#359=FACE_BOUND('',#289,.T.);
#360=FACE_BOUND('',#290,.T.);
#361=FACE_BOUND('',#291,.T.);
#362=FACE_BOUND('',#292,.T.);
#363=FACE_BOUND('',#293,.T.);
#364=FACE_BOUND('',#294,.T.);
#365=FACE_BOUND('',#295,.T.);
#366=FACE_BOUND('',#296,.T.);
#367=FACE_BOUND('',#297,.T.);
#368=FACE_BOUND('',#298,.T.);
#369=FACE_BOUND('',#299,.T.);
#370=FACE_BOUND('',#300,.T.);
#371=FACE_BOUND('',#301,.T.);
#372=FACE_BOUND('',#302,.T.);
#373=FACE_BOUND('',#303,.T.);
#374=FACE_BOUND('',#304,.T.);
#375=FACE_BOUND('',#305,.T.);
#376=FACE_BOUND('',#306,.T.);
#377=FACE_BOUND('',#307,.T.);
#378=FACE_BOUND('',#308,.T.);
#379=FACE_BOUND('',#309,.T.);
#380=FACE_BOUND('',#310,.T.);
#381=FACE_BOUND('',#311,.T.);
#382=FACE_BOUND('',#312,.T.);
#383=FACE_BOUND('',#313,.T.);
#384=FACE_BOUND('',#314,.T.);
#385=FACE_BOUND('',#315,.T.);
#386=FACE_BOUND('',#316,.T.);
#387=FACE_BOUND('',#317,.T.);
#388=FACE_BOUND('',#318,.T.);
#389=FACE_BOUND('',#319,.T.);
#390=FACE_BOUND('',#320,.T.);
#391=FACE_BOUND('',#321,.T.);
#392=FACE_BOUND('',#322,.T.);
#393=FACE_BOUND('',#323,.T.);
#394=FACE_BOUND('',#324,.T.);
#395=FACE_BOUND('',#325,.T.);
#396=PLANE('',#437);
#397=PLANE('',#454);
#398=PLANE('',#471);
#399=PLANE('',#472);
#400=PLANE('',#473);
#401=PLANE('',#474);
#402=ADVANCED_FACE('',(#326,#327,#328,#329,#330,#331,#332,#333,#334,#335,
#336,#337,#338,#339,#340,#341,#342),#396,.F.);
#403=ADVANCED_FACE('',(#343,#344,#345,#346,#347,#348,#349,#350,#351,#352,
#353,#354,#355,#356,#357,#358,#359),#397,.T.);
#404=ADVANCED_FACE('',(#360),#398,.T.);
#405=ADVANCED_FACE('',(#361),#399,.T.);
#406=ADVANCED_FACE('',(#362),#400,.T.);
#407=ADVANCED_FACE('',(#363),#401,.T.);
#408=ADVANCED_FACE('',(#364,#365),#12,.F.);
#409=ADVANCED_FACE('',(#366,#367),#13,.F.);
#410=ADVANCED_FACE('',(#368,#369),#14,.F.);
#411=ADVANCED_FACE('',(#370,#371),#15,.F.);
#412=ADVANCED_FACE('',(#372,#373),#16,.F.);
#413=ADVANCED_FACE('',(#374,#375),#17,.F.);
#414=ADVANCED_FACE('',(#376,#377),#18,.F.);
#415=ADVANCED_FACE('',(#378,#379),#19,.F.);
#416=ADVANCED_FACE('',(#380,#381),#20,.F.);
#417=ADVANCED_FACE('',(#382,#383),#21,.F.);
#418=ADVANCED_FACE('',(#384,#385),#22,.F.);
#419=ADVANCED_FACE('',(#386,#387),#23,.F.);
#420=ADVANCED_FACE('',(#388,#389),#24,.F.);
#421=ADVANCED_FACE('',(#390,#391),#25,.F.);
#422=ADVANCED_FACE('',(#392,#393),#26,.F.);
#423=ADVANCED_FACE('',(#394,#395),#27,.F.);
#424=CLOSED_SHELL('',(#402,#403,#404,#405,#406,#407,#408,#409,#410,#411,
#412,#413,#414,#415,#416,#417,#418,#419,#420,#421,#422,#423));
#425=STYLED_ITEM('',(#426),#433);
#426=PRESENTATION_STYLE_ASSIGNMENT((#427));
#427=SURFACE_STYLE_USAGE(.BOTH.,#428);
#428=SURFACE_SIDE_STYLE('',(#429));
#429=SURFACE_STYLE_FILL_AREA(#430);
#430=FILL_AREA_STYLE('',(#431));
#431=FILL_AREA_STYLE_COLOUR('',#432);
#432=COLOUR_RGB('',0.96078431372549,0.96078431372549,0.964705882352941);
#433=MANIFOLD_SOLID_BREP('bottom panel',#424);
#434=SHAPE_DEFINITION_REPRESENTATION(#726,#435);
#435=SHAPE_REPRESENTATION('bottom panel',(#436),#721);
#436=AXIS2_PLACEMENT_3D('',#613,#491,#492);
#437=AXIS2_PLACEMENT_3D('',#614,#493,#494);
#438=AXIS2_PLACEMENT_3D('',#615,#495,#496);
#439=AXIS2_PLACEMENT_3D('',#617,#497,#498);
#440=AXIS2_PLACEMENT_3D('',#619,#499,#500);
#441=AXIS2_PLACEMENT_3D('',#621,#501,#502);
#442=AXIS2_PLACEMENT_3D('',#623,#503,#504);
#443=AXIS2_PLACEMENT_3D('',#625,#505,#506);
#444=AXIS2_PLACEMENT_3D('',#627,#507,#508);
#445=AXIS2_PLACEMENT_3D('',#629,#509,#510);
#446=AXIS2_PLACEMENT_3D('',#631,#511,#512);
#447=AXIS2_PLACEMENT_3D('',#633,#513,#514);
#448=AXIS2_PLACEMENT_3D('',#635,#515,#516);
#449=AXIS2_PLACEMENT_3D('',#637,#517,#518);
#450=AXIS2_PLACEMENT_3D('',#639,#519,#520);
#451=AXIS2_PLACEMENT_3D('',#641,#521,#522);
#452=AXIS2_PLACEMENT_3D('',#643,#523,#524);
#453=AXIS2_PLACEMENT_3D('',#645,#525,#526);
#454=AXIS2_PLACEMENT_3D('',#655,#531,#532);
#455=AXIS2_PLACEMENT_3D('',#656,#533,#534);
#456=AXIS2_PLACEMENT_3D('',#658,#535,#536);
#457=AXIS2_PLACEMENT_3D('',#660,#537,#538);
#458=AXIS2_PLACEMENT_3D('',#662,#539,#540);
#459=AXIS2_PLACEMENT_3D('',#664,#541,#542);
#460=AXIS2_PLACEMENT_3D('',#666,#543,#544);
#461=AXIS2_PLACEMENT_3D('',#668,#545,#546);
#462=AXIS2_PLACEMENT_3D('',#670,#547,#548);
#463=AXIS2_PLACEMENT_3D('',#672,#549,#550);
#464=AXIS2_PLACEMENT_3D('',#674,#551,#552);
#465=AXIS2_PLACEMENT_3D('',#676,#553,#554);
#466=AXIS2_PLACEMENT_3D('',#678,#555,#556);
#467=AXIS2_PLACEMENT_3D('',#680,#557,#558);
#468=AXIS2_PLACEMENT_3D('',#682,#559,#560);
#469=AXIS2_PLACEMENT_3D('',#684,#561,#562);
#470=AXIS2_PLACEMENT_3D('',#686,#563,#564);
#471=AXIS2_PLACEMENT_3D('',#696,#569,#570);
#472=AXIS2_PLACEMENT_3D('',#699,#573,#574);
#473=AXIS2_PLACEMENT_3D('',#701,#576,#577);
#474=AXIS2_PLACEMENT_3D('',#703,#579,#580);
#475=AXIS2_PLACEMENT_3D('',#704,#581,#582);
#476=AXIS2_PLACEMENT_3D('',#705,#583,#584);
#477=AXIS2_PLACEMENT_3D('',#706,#585,#586);
#478=AXIS2_PLACEMENT_3D('',#707,#587,#588);
#479=AXIS2_PLACEMENT_3D('',#708,#589,#590);
#480=AXIS2_PLACEMENT_3D('',#709,#591,#592);
#481=AXIS2_PLACEMENT_3D('',#710,#593,#594);
#482=AXIS2_PLACEMENT_3D('',#711,#595,#596);
#483=AXIS2_PLACEMENT_3D('',#712,#597,#598);
#484=AXIS2_PLACEMENT_3D('',#713,#599,#600);
#485=AXIS2_PLACEMENT_3D('',#714,#601,#602);
#486=AXIS2_PLACEMENT_3D('',#715,#603,#604);
#487=AXIS2_PLACEMENT_3D('',#716,#605,#606);
#488=AXIS2_PLACEMENT_3D('',#717,#607,#608);
#489=AXIS2_PLACEMENT_3D('',#718,#609,#610);
#490=AXIS2_PLACEMENT_3D('',#719,#611,#612);
#491=DIRECTION('',(0.,0.,1.));
#492=DIRECTION('',(1.,0.,0.));
#493=DIRECTION('',(2.35816301339728E-15,1.10067783972489E-15,-1.));
#494=DIRECTION('',(1.,-9.86076131526265E-32,2.35816301339728E-15));
#495=DIRECTION('',(2.35816301339728E-15,1.10067783972489E-15,-1.));
#496=DIRECTION('',(1.,0.,0.));
#497=DIRECTION('',(2.35816301339728E-15,1.10067783972489E-15,-1.));
#498=DIRECTION('',(1.,0.,0.));
#499=DIRECTION('',(2.35816301339728E-15,1.10067783972489E-15,-1.));
#500=DIRECTION('',(1.,0.,0.));
#501=DIRECTION('',(2.35816301339728E-15,1.10067783972489E-15,-1.));
#502=DIRECTION('',(1.,0.,0.));
#503=DIRECTION('',(2.35816301339728E-15,1.10067783972489E-15,-1.));
#504=DIRECTION('',(1.,0.,0.));
#505=DIRECTION('',(2.35816301339728E-15,1.10067783972489E-15,-1.));
#506=DIRECTION('',(1.,0.,0.));
#507=DIRECTION('',(2.35816301339728E-15,1.10067783972489E-15,-1.));
#508=DIRECTION('',(1.,0.,0.));
#509=DIRECTION('',(2.35816301339728E-15,1.10067783972489E-15,-1.));
#510=DIRECTION('',(1.,0.,0.));
#511=DIRECTION('',(2.35816301339728E-15,1.10067783972489E-15,-1.));
#512=DIRECTION('',(1.,0.,0.));
#513=DIRECTION('',(2.35816301339728E-15,1.10067783972489E-15,-1.));
#514=DIRECTION('',(1.,0.,0.));
#515=DIRECTION('',(2.35816301339728E-15,1.10067783972489E-15,-1.));
#516=DIRECTION('',(1.,0.,0.));
#517=DIRECTION('',(2.35816301339728E-15,1.10067783972489E-15,-1.));
#518=DIRECTION('',(1.,0.,0.));
#519=DIRECTION('',(2.35816301339728E-15,1.10067783972489E-15,-1.));
#520=DIRECTION('',(1.,0.,0.));
#521=DIRECTION('',(2.35816301339728E-15,1.10067783972489E-15,-1.));
#522=DIRECTION('',(1.,0.,0.));
#523=DIRECTION('',(2.35816301339728E-15,1.10067783972489E-15,-1.));
#524=DIRECTION('',(1.,0.,0.));
#525=DIRECTION('',(2.35816301339728E-15,1.10067783972489E-15,-1.));
#526=DIRECTION('',(1.,0.,0.));
#527=DIRECTION('',(9.86076131526265E-32,1.,0.));
#528=DIRECTION('',(1.,-5.36258668498189E-16,2.35816301339728E-15));
#529=DIRECTION('',(9.86076131526265E-32,1.,0.));
#530=DIRECTION('',(1.,-4.69226334935915E-16,2.35816301339728E-15));
#531=DIRECTION('',(0.,0.,-1.));
#532=DIRECTION('',(-1.,0.,0.));
#533=DIRECTION('',(0.,0.,1.));
#534=DIRECTION('',(1.,0.,0.));
#535=DIRECTION('',(0.,0.,1.));
#536=DIRECTION('',(1.,0.,0.));
#537=DIRECTION('',(0.,0.,1.));
#538=DIRECTION('',(1.,0.,0.));
#539=DIRECTION('',(0.,0.,1.));
#540=DIRECTION('',(1.,0.,0.));
#541=DIRECTION('',(0.,0.,1.));
#542=DIRECTION('',(1.,0.,0.));
#543=DIRECTION('',(0.,0.,1.));
#544=DIRECTION('',(1.,0.,0.));
#545=DIRECTION('',(0.,0.,1.));
#546=DIRECTION('',(1.,0.,0.));
#547=DIRECTION('',(0.,0.,1.));
#548=DIRECTION('',(1.,0.,0.));
#549=DIRECTION('',(0.,0.,1.));
#550=DIRECTION('',(1.,0.,0.));
#551=DIRECTION('',(0.,0.,1.));
#552=DIRECTION('',(1.,0.,0.));
#553=DIRECTION('',(0.,0.,1.));
#554=DIRECTION('',(1.,0.,0.));
#555=DIRECTION('',(0.,0.,1.));
#556=DIRECTION('',(1.,0.,0.));
#557=DIRECTION('',(0.,0.,1.));
#558=DIRECTION('',(1.,0.,0.));
#559=DIRECTION('',(0.,0.,1.));
#560=DIRECTION('',(1.,0.,0.));
#561=DIRECTION('',(0.,0.,1.));
#562=DIRECTION('',(1.,0.,0.));
#563=DIRECTION('',(0.,0.,1.));
#564=DIRECTION('',(1.,0.,0.));
#565=DIRECTION('',(9.86076131526265E-32,1.,0.));
#566=DIRECTION('',(1.,-4.69226334935915E-16,2.35816301339728E-15));
#567=DIRECTION('',(-9.86076131526265E-32,-1.,0.));
#568=DIRECTION('',(-1.,5.36258668498189E-16,-2.35816301339728E-15));
#569=DIRECTION('',(-1.,9.86076131526265E-32,0.));
#570=DIRECTION('',(9.86076131526265E-32,1.,0.));
#571=DIRECTION('',(0.,0.,-1.));
#572=DIRECTION('',(0.,0.,-1.));
#573=DIRECTION('',(4.69226334935915E-16,1.,0.));
#574=DIRECTION('',(1.,-4.69226334935915E-16,2.35816301339728E-15));
#575=DIRECTION('',(0.,0.,-1.));
#576=DIRECTION('',(1.,-9.86076131526265E-32,0.));
#577=DIRECTION('',(-9.86076131526265E-32,-1.,0.));
#578=DIRECTION('',(0.,0.,-1.));
#579=DIRECTION('',(-5.36258668498189E-16,-1.,0.));
#580=DIRECTION('',(-1.,5.36258668498189E-16,-2.35816301339728E-15));
#581=DIRECTION('',(0.,0.,1.));
#582=DIRECTION('',(1.,0.,0.));
#583=DIRECTION('',(0.,0.,1.));
#584=DIRECTION('',(1.,0.,0.));
#585=DIRECTION('',(0.,0.,1.));
#586=DIRECTION('',(1.,0.,0.));
#587=DIRECTION('',(0.,0.,1.));
#588=DIRECTION('',(1.,0.,0.));
#589=DIRECTION('',(0.,0.,1.));
#590=DIRECTION('',(1.,0.,0.));
#591=DIRECTION('',(0.,0.,1.));
#592=DIRECTION('',(1.,0.,0.));
#593=DIRECTION('',(0.,0.,1.));
#594=DIRECTION('',(1.,0.,0.));
#595=DIRECTION('',(0.,0.,1.));
#596=DIRECTION('',(1.,0.,0.));
#597=DIRECTION('',(0.,0.,1.));
#598=DIRECTION('',(1.,0.,0.));
#599=DIRECTION('',(0.,0.,1.));
#600=DIRECTION('',(1.,0.,0.));
#601=DIRECTION('',(0.,0.,1.));
#602=DIRECTION('',(1.,0.,0.));
#603=DIRECTION('',(0.,0.,1.));
#604=DIRECTION('',(1.,0.,0.));
#605=DIRECTION('',(0.,0.,1.));
#606=DIRECTION('',(1.,0.,0.));
#607=DIRECTION('',(0.,0.,1.));
#608=DIRECTION('',(1.,0.,0.));
#609=DIRECTION('',(0.,0.,1.));
#610=DIRECTION('',(1.,0.,0.));
#611=DIRECTION('',(0.,0.,1.));
#612=DIRECTION('',(1.,0.,0.));
#613=CARTESIAN_POINT('',(0.,0.,0.));
#614=CARTESIAN_POINT('',(1.63424829224823E-15,0.0550000000000033,-0.515));
#615=CARTESIAN_POINT('',(-0.222439999999997,-0.184999999999996,-0.515));
#616=CARTESIAN_POINT('',(-0.220239999999997,-0.184999999999996,-0.515));
#617=CARTESIAN_POINT('',(-0.255,0.2625,-0.515));
#618=CARTESIAN_POINT('',(-0.2528,0.2625,-0.515));
#619=CARTESIAN_POINT('',(0.255,0.055,-0.515));
#620=CARTESIAN_POINT('',(0.2572,0.055,-0.515));
#621=CARTESIAN_POINT('',(0.,0.295,-0.515));
#622=CARTESIAN_POINT('',(0.0022,0.295,-0.515));
#623=CARTESIAN_POINT('',(-0.255,-0.152499999999996,-0.515));
#624=CARTESIAN_POINT('',(-0.2528,-0.152499999999996,-0.515));
#625=CARTESIAN_POINT('',(-0.22244,0.295,-0.515));
#626=CARTESIAN_POINT('',(-0.22024,0.295,-0.515));
#627=CARTESIAN_POINT('',(0.255,0.2625,-0.515));
#628=CARTESIAN_POINT('',(0.2572,0.2625,-0.515));
#629=CARTESIAN_POINT('',(0.22244,0.295,-0.515));
#630=CARTESIAN_POINT('',(0.22464,0.295,-0.515));
#631=CARTESIAN_POINT('',(-0.255,0.055,-0.515));
#632=CARTESIAN_POINT('',(-0.2528,0.055,-0.515));
#633=CARTESIAN_POINT('',(1.03028696685215E-15,-0.184999999999997,-0.515));
#634=CARTESIAN_POINT('',(0.00220000000000103,-0.184999999999997,-0.515));
#635=CARTESIAN_POINT('',(0.255,0.295,-0.515));
#636=CARTESIAN_POINT('',(0.2577,0.295,-0.515));
#637=CARTESIAN_POINT('',(0.255,-0.152499999999997,-0.515));
#638=CARTESIAN_POINT('',(0.2572,-0.152499999999997,-0.515));
#639=CARTESIAN_POINT('',(0.255,-0.184999999999997,-0.515));
#640=CARTESIAN_POINT('',(0.2577,-0.184999999999997,-0.515));
#641=CARTESIAN_POINT('',(-0.255,0.295,-0.515));
#642=CARTESIAN_POINT('',(-0.2523,0.295,-0.515));
#643=CARTESIAN_POINT('',(0.22244,-0.184999999999997,-0.515));
#644=CARTESIAN_POINT('',(0.22464,-0.184999999999997,-0.515));
#645=CARTESIAN_POINT('',(-0.255,-0.18499999999999,-0.515));
#646=CARTESIAN_POINT('',(-0.2523,-0.18499999999999,-0.515));
#647=CARTESIAN_POINT('',(-0.265,-0.194999999999997,-0.515));
#648=CARTESIAN_POINT('',(-0.265,-0.194999999999997,-0.515));
#649=CARTESIAN_POINT('',(-0.265,0.305,-0.515));
#650=CARTESIAN_POINT('',(-0.265,-0.194999999999997,-0.515));
#651=CARTESIAN_POINT('',(0.265,-0.194999999999997,-0.515));
#652=CARTESIAN_POINT('',(0.265,0.3035,-0.515));
#653=CARTESIAN_POINT('',(0.265,0.305,-0.515));
#654=CARTESIAN_POINT('',(-0.265,0.305,-0.515));
#655=CARTESIAN_POINT('',(1.63424829224823E-15,0.0550000000000033,-0.518));
#656=CARTESIAN_POINT('',(-0.222439999999997,-0.184999999999996,-0.518));
#657=CARTESIAN_POINT('',(-0.220239999999997,-0.184999999999996,-0.518));
#658=CARTESIAN_POINT('',(-0.255,0.2625,-0.518));
#659=CARTESIAN_POINT('',(-0.2528,0.2625,-0.518));
#660=CARTESIAN_POINT('',(0.255,0.055,-0.518));
#661=CARTESIAN_POINT('',(0.2572,0.055,-0.518));
#662=CARTESIAN_POINT('',(0.,0.295,-0.518));
#663=CARTESIAN_POINT('',(0.0022,0.295,-0.518));
#664=CARTESIAN_POINT('',(-0.255,-0.152499999999996,-0.518));
#665=CARTESIAN_POINT('',(-0.2528,-0.152499999999996,-0.518));
#666=CARTESIAN_POINT('',(-0.22244,0.295,-0.518));
#667=CARTESIAN_POINT('',(-0.22024,0.295,-0.518));
#668=CARTESIAN_POINT('',(0.255,0.2625,-0.518));
#669=CARTESIAN_POINT('',(0.2572,0.2625,-0.518));
#670=CARTESIAN_POINT('',(0.22244,0.295,-0.518));
#671=CARTESIAN_POINT('',(0.22464,0.295,-0.518));
#672=CARTESIAN_POINT('',(-0.255,0.055,-0.518));
#673=CARTESIAN_POINT('',(-0.2528,0.055,-0.518));
#674=CARTESIAN_POINT('',(1.03028696685215E-15,-0.184999999999997,-0.518));
#675=CARTESIAN_POINT('',(0.00220000000000103,-0.184999999999997,-0.518));
#676=CARTESIAN_POINT('',(0.255,0.295,-0.518));
#677=CARTESIAN_POINT('',(0.2577,0.295,-0.518));
#678=CARTESIAN_POINT('',(0.255,-0.152499999999997,-0.518));
#679=CARTESIAN_POINT('',(0.2572,-0.152499999999997,-0.518));
#680=CARTESIAN_POINT('',(0.255,-0.184999999999997,-0.518));
#681=CARTESIAN_POINT('',(0.2577,-0.184999999999997,-0.518));
#682=CARTESIAN_POINT('',(-0.255,0.295,-0.518));
#683=CARTESIAN_POINT('',(-0.2523,0.295,-0.518));
#684=CARTESIAN_POINT('',(0.22244,-0.184999999999997,-0.518));
#685=CARTESIAN_POINT('',(0.22464,-0.184999999999997,-0.518));
#686=CARTESIAN_POINT('',(-0.255,-0.18499999999999,-0.518));
#687=CARTESIAN_POINT('',(-0.2523,-0.18499999999999,-0.518));
#688=CARTESIAN_POINT('',(-0.265,-0.194999999999997,-0.518));
#689=CARTESIAN_POINT('',(-0.265,-0.194999999999997,-0.518));
#690=CARTESIAN_POINT('',(-0.265,0.305000000000004,-0.518));
#691=CARTESIAN_POINT('',(-0.265,0.305,-0.518));
#692=CARTESIAN_POINT('',(0.265,0.305,-0.518));
#693=CARTESIAN_POINT('',(0.265,0.3035,-0.518));
#694=CARTESIAN_POINT('',(0.265,-0.194999999999997,-0.518));
#695=CARTESIAN_POINT('',(-0.265,-0.194999999999997,-0.518));
#696=CARTESIAN_POINT('',(-0.265,-0.194999999999997,-0.515));
#697=CARTESIAN_POINT('',(-0.265,0.305,-0.515));
#698=CARTESIAN_POINT('',(-0.265,-0.194999999999997,-0.515));
#699=CARTESIAN_POINT('',(-0.265,0.305,-0.515));
#700=CARTESIAN_POINT('',(0.265,0.305,-0.515));
#701=CARTESIAN_POINT('',(0.265,0.305,-0.515));
#702=CARTESIAN_POINT('',(0.265,-0.194999999999997,-0.515));
#703=CARTESIAN_POINT('',(0.265,-0.194999999999997,-0.515));
#704=CARTESIAN_POINT('',(-0.222439999999997,-0.184999999999996,-0.518));
#705=CARTESIAN_POINT('',(-0.255,0.2625,-0.518));
#706=CARTESIAN_POINT('',(0.255,0.055,-0.518));
#707=CARTESIAN_POINT('',(0.,0.295,-0.518));
#708=CARTESIAN_POINT('',(-0.255,-0.152499999999996,-0.518));
#709=CARTESIAN_POINT('',(-0.22244,0.295,-0.518));
#710=CARTESIAN_POINT('',(0.255,0.2625,-0.518));
#711=CARTESIAN_POINT('',(0.22244,0.295,-0.518));
#712=CARTESIAN_POINT('',(-0.255,0.055,-0.518));
#713=CARTESIAN_POINT('',(1.03028696685215E-15,-0.184999999999997,-0.518));
#714=CARTESIAN_POINT('',(0.255,0.295,-0.518));
#715=CARTESIAN_POINT('',(0.255,-0.152499999999997,-0.518));
#716=CARTESIAN_POINT('',(0.255,-0.184999999999997,-0.518));
#717=CARTESIAN_POINT('',(-0.255,0.295,-0.518));
#718=CARTESIAN_POINT('',(0.22244,-0.184999999999997,-0.518));
#719=CARTESIAN_POINT('',(-0.255,-0.18499999999999,-0.518));
#720=MECHANICAL_DESIGN_GEOMETRIC_PRESENTATION_REPRESENTATION('',(#425),
#721);
#721=(
GEOMETRIC_REPRESENTATION_CONTEXT(3)
GLOBAL_UNCERTAINTY_ASSIGNED_CONTEXT((#722))
GLOBAL_UNIT_ASSIGNED_CONTEXT((#725,#724,#723))
REPRESENTATION_CONTEXT('bottom panel','TOP_LEVEL_ASSEMBLY_PART')
);
#722=UNCERTAINTY_MEASURE_WITH_UNIT(LENGTH_MEASURE(5.E-6),#725,
'DISTANCE_ACCURACY_VALUE','Maximum Tolerance applied to model');
#723=(
NAMED_UNIT(*)
SI_UNIT($,.STERADIAN.)
SOLID_ANGLE_UNIT()
);
#724=(
NAMED_UNIT(*)
PLANE_ANGLE_UNIT()
SI_UNIT($,.RADIAN.)
);
#725=(
LENGTH_UNIT()
NAMED_UNIT(*)
SI_UNIT($,.METRE.)
);
#726=PRODUCT_DEFINITION_SHAPE('','',#727);
#727=PRODUCT_DEFINITION('','',#729,#728);
#728=PRODUCT_DEFINITION_CONTEXT('',#735,'design');
#729=PRODUCT_DEFINITION_FORMATION_WITH_SPECIFIED_SOURCE('','',#731,
 .NOT_KNOWN.);
#730=PRODUCT_RELATED_PRODUCT_CATEGORY('','',(#731));
#731=PRODUCT('bottom panel','bottom panel','bottom panel',(#733));
#732=PRODUCT_CATEGORY('','');
#733=PRODUCT_CONTEXT('',#735,'mechanical');
#734=APPLICATION_PROTOCOL_DEFINITION('international standard',
'ap242_managed_model_based_3d_engineering',2011,#735);
#735=APPLICATION_CONTEXT('managed model based 3d engineering');
ENDSEC;
END-ISO-10303-21;
