ISO-10303-21;
HEADER;
/* Generated by software containing ST-Developer
 * from STEP Tools, Inc. (www.steptools.com) 
 */

FILE_DESCRIPTION(
/* description */ (''),
/* implementation_level */ '2;1');

FILE_NAME(
/* name */ 
'C:/Users/Philippe/Desktop/MOBICO/Client/Deegle/Devis/Laser-final/Chas
sis-fix-amortisseur.step',
/* time_stamp */ '2022-08-17T10:57:32+02:00',
/* author */ (''),
/* organization */ (''),
/* preprocessor_version */ 'ST-DEVELOPER v19',
/* originating_system */ 'Autodesk Translation Framework v11.7.0.108',
/* authorisation */ '');

FILE_SCHEMA (('AUTOMOTIVE_DESIGN { 1 0 10303 214 3 1 1 }'));
ENDSEC;

DATA;
#10=MECHANICAL_DESIGN_GEOMETRIC_PRESENTATION_REPRESENTATION('',(#13),#719);
#11=SHAPE_REPRESENTATION_RELATIONSHIP('SRR','None',#726,#12);
#12=ADVANCED_BREP_SHAPE_REPRESENTATION('',(#14),#718);
#13=STYLED_ITEM('',(#735),#14);
#14=MANIFOLD_SOLID_BREP('Corps1',#435);
#15=CIRCLE('',#453,4.);
#16=CIRCLE('',#454,4.);
#17=CIRCLE('',#459,4.);
#18=CIRCLE('',#460,4.);
#19=CIRCLE('',#468,4.);
#20=CIRCLE('',#469,4.);
#21=CIRCLE('',#474,4.);
#22=CIRCLE('',#475,4.);
#23=CYLINDRICAL_SURFACE('',#452,4.);
#24=CYLINDRICAL_SURFACE('',#458,4.);
#25=CYLINDRICAL_SURFACE('',#467,4.);
#26=CYLINDRICAL_SURFACE('',#473,4.);
#27=FACE_OUTER_BOUND('',#49,.T.);
#28=FACE_OUTER_BOUND('',#50,.T.);
#29=FACE_OUTER_BOUND('',#51,.T.);
#30=FACE_OUTER_BOUND('',#52,.T.);
#31=FACE_OUTER_BOUND('',#53,.T.);
#32=FACE_OUTER_BOUND('',#54,.T.);
#33=FACE_OUTER_BOUND('',#55,.T.);
#34=FACE_OUTER_BOUND('',#56,.T.);
#35=FACE_OUTER_BOUND('',#57,.T.);
#36=FACE_OUTER_BOUND('',#58,.T.);
#37=FACE_OUTER_BOUND('',#59,.T.);
#38=FACE_OUTER_BOUND('',#60,.T.);
#39=FACE_OUTER_BOUND('',#61,.T.);
#40=FACE_OUTER_BOUND('',#62,.T.);
#41=FACE_OUTER_BOUND('',#63,.T.);
#42=FACE_OUTER_BOUND('',#64,.T.);
#43=FACE_OUTER_BOUND('',#65,.T.);
#44=FACE_OUTER_BOUND('',#66,.T.);
#45=FACE_OUTER_BOUND('',#67,.T.);
#46=FACE_OUTER_BOUND('',#68,.T.);
#47=FACE_OUTER_BOUND('',#69,.T.);
#48=FACE_OUTER_BOUND('',#70,.T.);
#49=EDGE_LOOP('',(#275,#276,#277,#278));
#50=EDGE_LOOP('',(#279,#280,#281,#282));
#51=EDGE_LOOP('',(#283,#284,#285,#286));
#52=EDGE_LOOP('',(#287,#288,#289,#290));
#53=EDGE_LOOP('',(#291,#292,#293,#294));
#54=EDGE_LOOP('',(#295,#296,#297,#298));
#55=EDGE_LOOP('',(#299,#300,#301,#302));
#56=EDGE_LOOP('',(#303,#304,#305,#306));
#57=EDGE_LOOP('',(#307,#308,#309,#310));
#58=EDGE_LOOP('',(#311,#312,#313,#314));
#59=EDGE_LOOP('',(#315,#316,#317,#318));
#60=EDGE_LOOP('',(#319,#320,#321,#322));
#61=EDGE_LOOP('',(#323,#324,#325,#326));
#62=EDGE_LOOP('',(#327,#328,#329,#330));
#63=EDGE_LOOP('',(#331,#332,#333,#334));
#64=EDGE_LOOP('',(#335,#336,#337,#338));
#65=EDGE_LOOP('',(#339,#340,#341,#342));
#66=EDGE_LOOP('',(#343,#344,#345,#346));
#67=EDGE_LOOP('',(#347,#348,#349,#350));
#68=EDGE_LOOP('',(#351,#352,#353,#354));
#69=EDGE_LOOP('',(#355,#356,#357,#358,#359,#360,#361,#362,#363,#364,#365,
#366,#367,#368,#369,#370,#371,#372,#373,#374));
#70=EDGE_LOOP('',(#375,#376,#377,#378,#379,#380,#381,#382,#383,#384,#385,
#386,#387,#388,#389,#390,#391,#392,#393,#394));
#71=LINE('',#597,#123);
#72=LINE('',#599,#124);
#73=LINE('',#601,#125);
#74=LINE('',#602,#126);
#75=LINE('',#605,#127);
#76=LINE('',#607,#128);
#77=LINE('',#608,#129);
#78=LINE('',#612,#130);
#79=LINE('',#614,#131);
#80=LINE('',#616,#132);
#81=LINE('',#617,#133);
#82=LINE('',#623,#134);
#83=LINE('',#626,#135);
#84=LINE('',#628,#136);
#85=LINE('',#629,#137);
#86=LINE('',#632,#138);
#87=LINE('',#634,#139);
#88=LINE('',#635,#140);
#89=LINE('',#638,#141);
#90=LINE('',#640,#142);
#91=LINE('',#641,#143);
#92=LINE('',#647,#144);
#93=LINE('',#649,#145);
#94=LINE('',#650,#146);
#95=LINE('',#654,#147);
#96=LINE('',#656,#148);
#97=LINE('',#658,#149);
#98=LINE('',#659,#150);
#99=LINE('',#662,#151);
#100=LINE('',#664,#152);
#101=LINE('',#665,#153);
#102=LINE('',#667,#154);
#103=LINE('',#668,#155);
#104=LINE('',#671,#156);
#105=LINE('',#673,#157);
#106=LINE('',#674,#158);
#107=LINE('',#677,#159);
#108=LINE('',#679,#160);
#109=LINE('',#680,#161);
#110=LINE('',#685,#162);
#111=LINE('',#689,#163);
#112=LINE('',#691,#164);
#113=LINE('',#692,#165);
#114=LINE('',#695,#166);
#115=LINE('',#697,#167);
#116=LINE('',#698,#168);
#117=LINE('',#701,#169);
#118=LINE('',#703,#170);
#119=LINE('',#704,#171);
#120=LINE('',#709,#172);
#121=LINE('',#712,#173);
#122=LINE('',#713,#174);
#123=VECTOR('',#483,10.);
#124=VECTOR('',#484,10.);
#125=VECTOR('',#485,10.);
#126=VECTOR('',#486,10.);
#127=VECTOR('',#489,10.);
#128=VECTOR('',#490,10.);
#129=VECTOR('',#491,10.);
#130=VECTOR('',#494,10.);
#131=VECTOR('',#495,10.);
#132=VECTOR('',#496,10.);
#133=VECTOR('',#497,10.);
#134=VECTOR('',#504,10.);
#135=VECTOR('',#507,10.);
#136=VECTOR('',#508,10.);
#137=VECTOR('',#509,10.);
#138=VECTOR('',#512,10.);
#139=VECTOR('',#513,10.);
#140=VECTOR('',#514,10.);
#141=VECTOR('',#517,10.);
#142=VECTOR('',#518,10.);
#143=VECTOR('',#519,10.);
#144=VECTOR('',#526,10.);
#145=VECTOR('',#529,10.);
#146=VECTOR('',#530,10.);
#147=VECTOR('',#533,10.);
#148=VECTOR('',#534,10.);
#149=VECTOR('',#535,10.);
#150=VECTOR('',#536,10.);
#151=VECTOR('',#539,10.);
#152=VECTOR('',#540,10.);
#153=VECTOR('',#541,10.);
#154=VECTOR('',#544,10.);
#155=VECTOR('',#545,10.);
#156=VECTOR('',#548,10.);
#157=VECTOR('',#549,10.);
#158=VECTOR('',#550,10.);
#159=VECTOR('',#553,10.);
#160=VECTOR('',#554,10.);
#161=VECTOR('',#555,10.);
#162=VECTOR('',#560,10.);
#163=VECTOR('',#565,10.);
#164=VECTOR('',#566,10.);
#165=VECTOR('',#567,10.);
#166=VECTOR('',#570,10.);
#167=VECTOR('',#571,10.);
#168=VECTOR('',#572,10.);
#169=VECTOR('',#575,10.);
#170=VECTOR('',#576,10.);
#171=VECTOR('',#577,10.);
#172=VECTOR('',#582,10.);
#173=VECTOR('',#587,10.);
#174=VECTOR('',#588,10.);
#175=VERTEX_POINT('',#595);
#176=VERTEX_POINT('',#596);
#177=VERTEX_POINT('',#598);
#178=VERTEX_POINT('',#600);
#179=VERTEX_POINT('',#604);
#180=VERTEX_POINT('',#606);
#181=VERTEX_POINT('',#610);
#182=VERTEX_POINT('',#611);
#183=VERTEX_POINT('',#613);
#184=VERTEX_POINT('',#615);
#185=VERTEX_POINT('',#619);
#186=VERTEX_POINT('',#621);
#187=VERTEX_POINT('',#625);
#188=VERTEX_POINT('',#627);
#189=VERTEX_POINT('',#631);
#190=VERTEX_POINT('',#633);
#191=VERTEX_POINT('',#637);
#192=VERTEX_POINT('',#639);
#193=VERTEX_POINT('',#643);
#194=VERTEX_POINT('',#645);
#195=VERTEX_POINT('',#652);
#196=VERTEX_POINT('',#653);
#197=VERTEX_POINT('',#655);
#198=VERTEX_POINT('',#657);
#199=VERTEX_POINT('',#661);
#200=VERTEX_POINT('',#663);
#201=VERTEX_POINT('',#670);
#202=VERTEX_POINT('',#672);
#203=VERTEX_POINT('',#676);
#204=VERTEX_POINT('',#678);
#205=VERTEX_POINT('',#682);
#206=VERTEX_POINT('',#684);
#207=VERTEX_POINT('',#688);
#208=VERTEX_POINT('',#690);
#209=VERTEX_POINT('',#694);
#210=VERTEX_POINT('',#696);
#211=VERTEX_POINT('',#700);
#212=VERTEX_POINT('',#702);
#213=VERTEX_POINT('',#706);
#214=VERTEX_POINT('',#708);
#215=EDGE_CURVE('',#175,#176,#71,.T.);
#216=EDGE_CURVE('',#175,#177,#72,.T.);
#217=EDGE_CURVE('',#178,#177,#73,.T.);
#218=EDGE_CURVE('',#176,#178,#74,.T.);
#219=EDGE_CURVE('',#179,#176,#75,.T.);
#220=EDGE_CURVE('',#180,#178,#76,.T.);
#221=EDGE_CURVE('',#179,#180,#77,.T.);
#222=EDGE_CURVE('',#181,#182,#78,.T.);
#223=EDGE_CURVE('',#182,#183,#79,.T.);
#224=EDGE_CURVE('',#184,#183,#80,.T.);
#225=EDGE_CURVE('',#181,#184,#81,.T.);
#226=EDGE_CURVE('',#185,#181,#15,.T.);
#227=EDGE_CURVE('',#186,#184,#16,.T.);
#228=EDGE_CURVE('',#185,#186,#82,.T.);
#229=EDGE_CURVE('',#185,#187,#83,.T.);
#230=EDGE_CURVE('',#188,#186,#84,.T.);
#231=EDGE_CURVE('',#187,#188,#85,.T.);
#232=EDGE_CURVE('',#187,#189,#86,.T.);
#233=EDGE_CURVE('',#190,#188,#87,.T.);
#234=EDGE_CURVE('',#189,#190,#88,.T.);
#235=EDGE_CURVE('',#191,#189,#89,.T.);
#236=EDGE_CURVE('',#192,#190,#90,.T.);
#237=EDGE_CURVE('',#191,#192,#91,.T.);
#238=EDGE_CURVE('',#193,#191,#17,.T.);
#239=EDGE_CURVE('',#194,#192,#18,.T.);
#240=EDGE_CURVE('',#193,#194,#92,.T.);
#241=EDGE_CURVE('',#193,#175,#93,.T.);
#242=EDGE_CURVE('',#177,#194,#94,.T.);
#243=EDGE_CURVE('',#195,#196,#95,.T.);
#244=EDGE_CURVE('',#196,#197,#96,.T.);
#245=EDGE_CURVE('',#197,#198,#97,.T.);
#246=EDGE_CURVE('',#195,#198,#98,.T.);
#247=EDGE_CURVE('',#199,#196,#99,.T.);
#248=EDGE_CURVE('',#199,#200,#100,.T.);
#249=EDGE_CURVE('',#200,#197,#101,.T.);
#250=EDGE_CURVE('',#179,#199,#102,.T.);
#251=EDGE_CURVE('',#200,#180,#103,.T.);
#252=EDGE_CURVE('',#201,#182,#104,.T.);
#253=EDGE_CURVE('',#201,#202,#105,.T.);
#254=EDGE_CURVE('',#202,#183,#106,.T.);
#255=EDGE_CURVE('',#203,#201,#107,.T.);
#256=EDGE_CURVE('',#203,#204,#108,.T.);
#257=EDGE_CURVE('',#204,#202,#109,.T.);
#258=EDGE_CURVE('',#205,#203,#19,.T.);
#259=EDGE_CURVE('',#205,#206,#110,.T.);
#260=EDGE_CURVE('',#206,#204,#20,.T.);
#261=EDGE_CURVE('',#205,#207,#111,.T.);
#262=EDGE_CURVE('',#207,#208,#112,.T.);
#263=EDGE_CURVE('',#208,#206,#113,.T.);
#264=EDGE_CURVE('',#207,#209,#114,.T.);
#265=EDGE_CURVE('',#209,#210,#115,.T.);
#266=EDGE_CURVE('',#210,#208,#116,.T.);
#267=EDGE_CURVE('',#211,#209,#117,.T.);
#268=EDGE_CURVE('',#211,#212,#118,.T.);
#269=EDGE_CURVE('',#212,#210,#119,.T.);
#270=EDGE_CURVE('',#213,#211,#21,.T.);
#271=EDGE_CURVE('',#213,#214,#120,.T.);
#272=EDGE_CURVE('',#214,#212,#22,.T.);
#273=EDGE_CURVE('',#213,#195,#121,.T.);
#274=EDGE_CURVE('',#198,#214,#122,.T.);
#275=ORIENTED_EDGE('',*,*,#215,.F.);
#276=ORIENTED_EDGE('',*,*,#216,.T.);
#277=ORIENTED_EDGE('',*,*,#217,.F.);
#278=ORIENTED_EDGE('',*,*,#218,.F.);
#279=ORIENTED_EDGE('',*,*,#219,.T.);
#280=ORIENTED_EDGE('',*,*,#218,.T.);
#281=ORIENTED_EDGE('',*,*,#220,.F.);
#282=ORIENTED_EDGE('',*,*,#221,.F.);
#283=ORIENTED_EDGE('',*,*,#222,.T.);
#284=ORIENTED_EDGE('',*,*,#223,.T.);
#285=ORIENTED_EDGE('',*,*,#224,.F.);
#286=ORIENTED_EDGE('',*,*,#225,.F.);
#287=ORIENTED_EDGE('',*,*,#226,.T.);
#288=ORIENTED_EDGE('',*,*,#225,.T.);
#289=ORIENTED_EDGE('',*,*,#227,.F.);
#290=ORIENTED_EDGE('',*,*,#228,.F.);
#291=ORIENTED_EDGE('',*,*,#229,.F.);
#292=ORIENTED_EDGE('',*,*,#228,.T.);
#293=ORIENTED_EDGE('',*,*,#230,.F.);
#294=ORIENTED_EDGE('',*,*,#231,.F.);
#295=ORIENTED_EDGE('',*,*,#232,.F.);
#296=ORIENTED_EDGE('',*,*,#231,.T.);
#297=ORIENTED_EDGE('',*,*,#233,.F.);
#298=ORIENTED_EDGE('',*,*,#234,.F.);
#299=ORIENTED_EDGE('',*,*,#235,.T.);
#300=ORIENTED_EDGE('',*,*,#234,.T.);
#301=ORIENTED_EDGE('',*,*,#236,.F.);
#302=ORIENTED_EDGE('',*,*,#237,.F.);
#303=ORIENTED_EDGE('',*,*,#238,.T.);
#304=ORIENTED_EDGE('',*,*,#237,.T.);
#305=ORIENTED_EDGE('',*,*,#239,.F.);
#306=ORIENTED_EDGE('',*,*,#240,.F.);
#307=ORIENTED_EDGE('',*,*,#241,.F.);
#308=ORIENTED_EDGE('',*,*,#240,.T.);
#309=ORIENTED_EDGE('',*,*,#242,.F.);
#310=ORIENTED_EDGE('',*,*,#216,.F.);
#311=ORIENTED_EDGE('',*,*,#243,.T.);
#312=ORIENTED_EDGE('',*,*,#244,.T.);
#313=ORIENTED_EDGE('',*,*,#245,.T.);
#314=ORIENTED_EDGE('',*,*,#246,.F.);
#315=ORIENTED_EDGE('',*,*,#247,.F.);
#316=ORIENTED_EDGE('',*,*,#248,.T.);
#317=ORIENTED_EDGE('',*,*,#249,.T.);
#318=ORIENTED_EDGE('',*,*,#244,.F.);
#319=ORIENTED_EDGE('',*,*,#250,.F.);
#320=ORIENTED_EDGE('',*,*,#221,.T.);
#321=ORIENTED_EDGE('',*,*,#251,.F.);
#322=ORIENTED_EDGE('',*,*,#248,.F.);
#323=ORIENTED_EDGE('',*,*,#252,.F.);
#324=ORIENTED_EDGE('',*,*,#253,.T.);
#325=ORIENTED_EDGE('',*,*,#254,.T.);
#326=ORIENTED_EDGE('',*,*,#223,.F.);
#327=ORIENTED_EDGE('',*,*,#255,.F.);
#328=ORIENTED_EDGE('',*,*,#256,.T.);
#329=ORIENTED_EDGE('',*,*,#257,.T.);
#330=ORIENTED_EDGE('',*,*,#253,.F.);
#331=ORIENTED_EDGE('',*,*,#258,.F.);
#332=ORIENTED_EDGE('',*,*,#259,.T.);
#333=ORIENTED_EDGE('',*,*,#260,.T.);
#334=ORIENTED_EDGE('',*,*,#256,.F.);
#335=ORIENTED_EDGE('',*,*,#261,.T.);
#336=ORIENTED_EDGE('',*,*,#262,.T.);
#337=ORIENTED_EDGE('',*,*,#263,.T.);
#338=ORIENTED_EDGE('',*,*,#259,.F.);
#339=ORIENTED_EDGE('',*,*,#264,.T.);
#340=ORIENTED_EDGE('',*,*,#265,.T.);
#341=ORIENTED_EDGE('',*,*,#266,.T.);
#342=ORIENTED_EDGE('',*,*,#262,.F.);
#343=ORIENTED_EDGE('',*,*,#267,.F.);
#344=ORIENTED_EDGE('',*,*,#268,.T.);
#345=ORIENTED_EDGE('',*,*,#269,.T.);
#346=ORIENTED_EDGE('',*,*,#265,.F.);
#347=ORIENTED_EDGE('',*,*,#270,.F.);
#348=ORIENTED_EDGE('',*,*,#271,.T.);
#349=ORIENTED_EDGE('',*,*,#272,.T.);
#350=ORIENTED_EDGE('',*,*,#268,.F.);
#351=ORIENTED_EDGE('',*,*,#273,.T.);
#352=ORIENTED_EDGE('',*,*,#246,.T.);
#353=ORIENTED_EDGE('',*,*,#274,.T.);
#354=ORIENTED_EDGE('',*,*,#271,.F.);
#355=ORIENTED_EDGE('',*,*,#273,.F.);
#356=ORIENTED_EDGE('',*,*,#270,.T.);
#357=ORIENTED_EDGE('',*,*,#267,.T.);
#358=ORIENTED_EDGE('',*,*,#264,.F.);
#359=ORIENTED_EDGE('',*,*,#261,.F.);
#360=ORIENTED_EDGE('',*,*,#258,.T.);
#361=ORIENTED_EDGE('',*,*,#255,.T.);
#362=ORIENTED_EDGE('',*,*,#252,.T.);
#363=ORIENTED_EDGE('',*,*,#222,.F.);
#364=ORIENTED_EDGE('',*,*,#226,.F.);
#365=ORIENTED_EDGE('',*,*,#229,.T.);
#366=ORIENTED_EDGE('',*,*,#232,.T.);
#367=ORIENTED_EDGE('',*,*,#235,.F.);
#368=ORIENTED_EDGE('',*,*,#238,.F.);
#369=ORIENTED_EDGE('',*,*,#241,.T.);
#370=ORIENTED_EDGE('',*,*,#215,.T.);
#371=ORIENTED_EDGE('',*,*,#219,.F.);
#372=ORIENTED_EDGE('',*,*,#250,.T.);
#373=ORIENTED_EDGE('',*,*,#247,.T.);
#374=ORIENTED_EDGE('',*,*,#243,.F.);
#375=ORIENTED_EDGE('',*,*,#274,.F.);
#376=ORIENTED_EDGE('',*,*,#245,.F.);
#377=ORIENTED_EDGE('',*,*,#249,.F.);
#378=ORIENTED_EDGE('',*,*,#251,.T.);
#379=ORIENTED_EDGE('',*,*,#220,.T.);
#380=ORIENTED_EDGE('',*,*,#217,.T.);
#381=ORIENTED_EDGE('',*,*,#242,.T.);
#382=ORIENTED_EDGE('',*,*,#239,.T.);
#383=ORIENTED_EDGE('',*,*,#236,.T.);
#384=ORIENTED_EDGE('',*,*,#233,.T.);
#385=ORIENTED_EDGE('',*,*,#230,.T.);
#386=ORIENTED_EDGE('',*,*,#227,.T.);
#387=ORIENTED_EDGE('',*,*,#224,.T.);
#388=ORIENTED_EDGE('',*,*,#254,.F.);
#389=ORIENTED_EDGE('',*,*,#257,.F.);
#390=ORIENTED_EDGE('',*,*,#260,.F.);
#391=ORIENTED_EDGE('',*,*,#263,.F.);
#392=ORIENTED_EDGE('',*,*,#266,.F.);
#393=ORIENTED_EDGE('',*,*,#269,.F.);
#394=ORIENTED_EDGE('',*,*,#272,.F.);
#395=PLANE('',#449);
#396=PLANE('',#450);
#397=PLANE('',#451);
#398=PLANE('',#455);
#399=PLANE('',#456);
#400=PLANE('',#457);
#401=PLANE('',#461);
#402=PLANE('',#462);
#403=PLANE('',#463);
#404=PLANE('',#464);
#405=PLANE('',#465);
#406=PLANE('',#466);
#407=PLANE('',#470);
#408=PLANE('',#471);
#409=PLANE('',#472);
#410=PLANE('',#476);
#411=PLANE('',#477);
#412=PLANE('',#478);
#413=ADVANCED_FACE('',(#27),#395,.T.);
#414=ADVANCED_FACE('',(#28),#396,.T.);
#415=ADVANCED_FACE('',(#29),#397,.T.);
#416=ADVANCED_FACE('',(#30),#23,.F.);
#417=ADVANCED_FACE('',(#31),#398,.T.);
#418=ADVANCED_FACE('',(#32),#399,.T.);
#419=ADVANCED_FACE('',(#33),#400,.T.);
#420=ADVANCED_FACE('',(#34),#24,.F.);
#421=ADVANCED_FACE('',(#35),#401,.T.);
#422=ADVANCED_FACE('',(#36),#402,.F.);
#423=ADVANCED_FACE('',(#37),#403,.F.);
#424=ADVANCED_FACE('',(#38),#404,.F.);
#425=ADVANCED_FACE('',(#39),#405,.F.);
#426=ADVANCED_FACE('',(#40),#406,.F.);
#427=ADVANCED_FACE('',(#41),#25,.F.);
#428=ADVANCED_FACE('',(#42),#407,.F.);
#429=ADVANCED_FACE('',(#43),#408,.F.);
#430=ADVANCED_FACE('',(#44),#409,.F.);
#431=ADVANCED_FACE('',(#45),#26,.F.);
#432=ADVANCED_FACE('',(#46),#410,.F.);
#433=ADVANCED_FACE('',(#47),#411,.F.);
#434=ADVANCED_FACE('',(#48),#412,.T.);
#435=CLOSED_SHELL('',(#413,#414,#415,#416,#417,#418,#419,#420,#421,#422,
#423,#424,#425,#426,#427,#428,#429,#430,#431,#432,#433,#434));
#436=DERIVED_UNIT_ELEMENT(#438,1.);
#437=DERIVED_UNIT_ELEMENT(#721,-3.);
#438=(
MASS_UNIT()
NAMED_UNIT(*)
SI_UNIT(.KILO.,.GRAM.)
);
#439=DERIVED_UNIT((#436,#437));
#440=MEASURE_REPRESENTATION_ITEM('density measure',
POSITIVE_RATIO_MEASURE(7870.),#439);
#441=PROPERTY_DEFINITION_REPRESENTATION(#446,#443);
#442=PROPERTY_DEFINITION_REPRESENTATION(#447,#444);
#443=REPRESENTATION('material name',(#445),#718);
#444=REPRESENTATION('density',(#440),#718);
#445=DESCRIPTIVE_REPRESENTATION_ITEM('Acier AISI 1015',
'Acier AISI 1015');
#446=PROPERTY_DEFINITION('material property','material name',#728);
#447=PROPERTY_DEFINITION('material property','density of part',#728);
#448=AXIS2_PLACEMENT_3D('placement',#593,#479,#480);
#449=AXIS2_PLACEMENT_3D('',#594,#481,#482);
#450=AXIS2_PLACEMENT_3D('',#603,#487,#488);
#451=AXIS2_PLACEMENT_3D('',#609,#492,#493);
#452=AXIS2_PLACEMENT_3D('',#618,#498,#499);
#453=AXIS2_PLACEMENT_3D('',#620,#500,#501);
#454=AXIS2_PLACEMENT_3D('',#622,#502,#503);
#455=AXIS2_PLACEMENT_3D('',#624,#505,#506);
#456=AXIS2_PLACEMENT_3D('',#630,#510,#511);
#457=AXIS2_PLACEMENT_3D('',#636,#515,#516);
#458=AXIS2_PLACEMENT_3D('',#642,#520,#521);
#459=AXIS2_PLACEMENT_3D('',#644,#522,#523);
#460=AXIS2_PLACEMENT_3D('',#646,#524,#525);
#461=AXIS2_PLACEMENT_3D('',#648,#527,#528);
#462=AXIS2_PLACEMENT_3D('',#651,#531,#532);
#463=AXIS2_PLACEMENT_3D('',#660,#537,#538);
#464=AXIS2_PLACEMENT_3D('',#666,#542,#543);
#465=AXIS2_PLACEMENT_3D('',#669,#546,#547);
#466=AXIS2_PLACEMENT_3D('',#675,#551,#552);
#467=AXIS2_PLACEMENT_3D('',#681,#556,#557);
#468=AXIS2_PLACEMENT_3D('',#683,#558,#559);
#469=AXIS2_PLACEMENT_3D('',#686,#561,#562);
#470=AXIS2_PLACEMENT_3D('',#687,#563,#564);
#471=AXIS2_PLACEMENT_3D('',#693,#568,#569);
#472=AXIS2_PLACEMENT_3D('',#699,#573,#574);
#473=AXIS2_PLACEMENT_3D('',#705,#578,#579);
#474=AXIS2_PLACEMENT_3D('',#707,#580,#581);
#475=AXIS2_PLACEMENT_3D('',#710,#583,#584);
#476=AXIS2_PLACEMENT_3D('',#711,#585,#586);
#477=AXIS2_PLACEMENT_3D('',#714,#589,#590);
#478=AXIS2_PLACEMENT_3D('',#715,#591,#592);
#479=DIRECTION('axis',(0.,0.,1.));
#480=DIRECTION('refdir',(1.,0.,0.));
#481=DIRECTION('center_axis',(0.,-1.,0.));
#482=DIRECTION('ref_axis',(0.,0.,1.));
#483=DIRECTION('',(0.,0.,-1.));
#484=DIRECTION('',(-1.,0.,0.));
#485=DIRECTION('',(0.,0.,1.));
#486=DIRECTION('',(-1.,0.,0.));
#487=DIRECTION('center_axis',(0.,-4.736951571734E-16,-1.));
#488=DIRECTION('ref_axis',(0.,-1.,4.736951571734E-16));
#489=DIRECTION('',(0.,-1.,4.736951571734E-16));
#490=DIRECTION('',(0.,-1.,4.736951571734E-16));
#491=DIRECTION('',(-1.,0.,0.));
#492=DIRECTION('center_axis',(0.,0.,-1.));
#493=DIRECTION('ref_axis',(0.,-1.,0.));
#494=DIRECTION('',(0.,-1.,0.));
#495=DIRECTION('',(-1.,0.,0.));
#496=DIRECTION('',(0.,-1.,0.));
#497=DIRECTION('',(-1.,0.,0.));
#498=DIRECTION('center_axis',(-1.,0.,0.));
#499=DIRECTION('ref_axis',(0.,1.,0.));
#500=DIRECTION('center_axis',(1.,0.,0.));
#501=DIRECTION('ref_axis',(0.,1.,0.));
#502=DIRECTION('center_axis',(1.,0.,0.));
#503=DIRECTION('ref_axis',(0.,1.,0.));
#504=DIRECTION('',(-1.,0.,0.));
#505=DIRECTION('center_axis',(0.,0.,1.));
#506=DIRECTION('ref_axis',(0.,1.,0.));
#507=DIRECTION('',(0.,-1.,0.));
#508=DIRECTION('',(0.,1.,0.));
#509=DIRECTION('',(-1.,0.,0.));
#510=DIRECTION('center_axis',(0.,-1.,0.));
#511=DIRECTION('ref_axis',(0.,0.,1.));
#512=DIRECTION('',(0.,0.,-1.));
#513=DIRECTION('',(0.,0.,1.));
#514=DIRECTION('',(-1.,0.,0.));
#515=DIRECTION('center_axis',(0.,0.,-1.));
#516=DIRECTION('ref_axis',(0.,-1.,0.));
#517=DIRECTION('',(0.,-1.,0.));
#518=DIRECTION('',(0.,-1.,0.));
#519=DIRECTION('',(-1.,0.,0.));
#520=DIRECTION('center_axis',(-1.,0.,0.));
#521=DIRECTION('ref_axis',(0.,1.,0.));
#522=DIRECTION('center_axis',(1.,0.,0.));
#523=DIRECTION('ref_axis',(0.,1.,0.));
#524=DIRECTION('center_axis',(1.,0.,0.));
#525=DIRECTION('ref_axis',(0.,1.,0.));
#526=DIRECTION('',(-1.,0.,0.));
#527=DIRECTION('center_axis',(0.,0.,1.));
#528=DIRECTION('ref_axis',(0.,1.,0.));
#529=DIRECTION('',(0.,-1.,0.));
#530=DIRECTION('',(0.,1.,0.));
#531=DIRECTION('center_axis',(0.,1.,0.));
#532=DIRECTION('ref_axis',(0.,0.,-1.));
#533=DIRECTION('',(0.,0.,1.));
#534=DIRECTION('',(-1.,0.,0.));
#535=DIRECTION('',(0.,0.,-1.));
#536=DIRECTION('',(-1.,0.,0.));
#537=DIRECTION('center_axis',(0.,4.736951571734E-16,-1.));
#538=DIRECTION('ref_axis',(0.,-1.,-4.736951571734E-16));
#539=DIRECTION('',(0.,-1.,-4.736951571734E-16));
#540=DIRECTION('',(-1.,0.,0.));
#541=DIRECTION('',(0.,-1.,-4.736951571734E-16));
#542=DIRECTION('center_axis',(0.,-1.,0.));
#543=DIRECTION('ref_axis',(0.,0.,1.));
#544=DIRECTION('',(0.,0.,1.));
#545=DIRECTION('',(0.,0.,-1.));
#546=DIRECTION('center_axis',(0.,1.,-1.4210854715202E-15));
#547=DIRECTION('ref_axis',(0.,-1.4210854715202E-15,-1.));
#548=DIRECTION('',(0.,-1.4210854715202E-15,-1.));
#549=DIRECTION('',(-1.,0.,0.));
#550=DIRECTION('',(0.,-1.4210854715202E-15,-1.));
#551=DIRECTION('center_axis',(0.,0.,-1.));
#552=DIRECTION('ref_axis',(0.,-1.,0.));
#553=DIRECTION('',(0.,-1.,0.));
#554=DIRECTION('',(-1.,0.,0.));
#555=DIRECTION('',(0.,-1.,0.));
#556=DIRECTION('center_axis',(1.,0.,0.));
#557=DIRECTION('ref_axis',(0.,1.,0.));
#558=DIRECTION('center_axis',(-1.,0.,0.));
#559=DIRECTION('ref_axis',(0.,1.,0.));
#560=DIRECTION('',(-1.,0.,0.));
#561=DIRECTION('center_axis',(-1.,0.,0.));
#562=DIRECTION('ref_axis',(0.,1.,0.));
#563=DIRECTION('center_axis',(0.,0.,1.));
#564=DIRECTION('ref_axis',(0.,1.,0.));
#565=DIRECTION('',(0.,-1.,0.));
#566=DIRECTION('',(-1.,0.,0.));
#567=DIRECTION('',(0.,1.,0.));
#568=DIRECTION('center_axis',(0.,1.,0.));
#569=DIRECTION('ref_axis',(0.,0.,-1.));
#570=DIRECTION('',(0.,0.,1.));
#571=DIRECTION('',(-1.,0.,0.));
#572=DIRECTION('',(0.,0.,-1.));
#573=DIRECTION('center_axis',(0.,0.,-1.));
#574=DIRECTION('ref_axis',(0.,-1.,0.));
#575=DIRECTION('',(0.,-1.,0.));
#576=DIRECTION('',(-1.,0.,0.));
#577=DIRECTION('',(0.,-1.,0.));
#578=DIRECTION('center_axis',(1.,0.,0.));
#579=DIRECTION('ref_axis',(0.,1.,0.));
#580=DIRECTION('center_axis',(-1.,0.,0.));
#581=DIRECTION('ref_axis',(0.,1.,0.));
#582=DIRECTION('',(-1.,0.,0.));
#583=DIRECTION('center_axis',(-1.,0.,0.));
#584=DIRECTION('ref_axis',(0.,1.,0.));
#585=DIRECTION('center_axis',(0.,0.,1.));
#586=DIRECTION('ref_axis',(0.,1.,0.));
#587=DIRECTION('',(0.,-1.,0.));
#588=DIRECTION('',(0.,1.,0.));
#589=DIRECTION('center_axis',(-1.,0.,0.));
#590=DIRECTION('ref_axis',(0.,1.,0.));
#591=DIRECTION('center_axis',(-1.,0.,0.));
#592=DIRECTION('ref_axis',(0.,1.,0.));
#593=CARTESIAN_POINT('',(0.,0.,0.));
#594=CARTESIAN_POINT('Origin',(44.21042,62.5,-42.));
#595=CARTESIAN_POINT('',(44.21042,62.5,-36.5));
#596=CARTESIAN_POINT('',(44.21042,62.5,-42.));
#597=CARTESIAN_POINT('',(44.21042,62.5,-12.5));
#598=CARTESIAN_POINT('',(39.21042,62.5,-36.5));
#599=CARTESIAN_POINT('',(44.21042,62.5,-36.5));
#600=CARTESIAN_POINT('',(39.21042,62.5,-42.));
#601=CARTESIAN_POINT('',(39.21042,62.5,-12.5));
#602=CARTESIAN_POINT('',(44.21042,62.5,-42.));
#603=CARTESIAN_POINT('Origin',(44.21042,87.5,-42.));
#604=CARTESIAN_POINT('',(44.21042,87.5,-42.));
#605=CARTESIAN_POINT('',(44.21042,87.5,-42.));
#606=CARTESIAN_POINT('',(39.21042,87.5,-42.));
#607=CARTESIAN_POINT('',(39.21042,87.5,-42.));
#608=CARTESIAN_POINT('',(44.21042,87.5,-42.));
#609=CARTESIAN_POINT('Origin',(44.21042,75.,-11.));
#610=CARTESIAN_POINT('',(44.21042,75.,-11.));
#611=CARTESIAN_POINT('',(44.21042,62.5,-11.));
#612=CARTESIAN_POINT('',(44.21042,75.,-11.));
#613=CARTESIAN_POINT('',(39.21042,62.5,-11.));
#614=CARTESIAN_POINT('',(44.21042,62.5,-11.));
#615=CARTESIAN_POINT('',(39.21042,75.,-11.));
#616=CARTESIAN_POINT('',(39.21042,75.,-11.));
#617=CARTESIAN_POINT('',(44.21042,75.,-11.));
#618=CARTESIAN_POINT('Origin',(44.21042,75.,-15.));
#619=CARTESIAN_POINT('',(44.21042,75.,-19.));
#620=CARTESIAN_POINT('Origin',(44.21042,75.,-15.));
#621=CARTESIAN_POINT('',(39.21042,75.,-19.));
#622=CARTESIAN_POINT('Origin',(39.21042,75.,-15.));
#623=CARTESIAN_POINT('',(44.21042,75.,-19.));
#624=CARTESIAN_POINT('Origin',(44.21042,62.5,-19.));
#625=CARTESIAN_POINT('',(44.21042,62.5,-19.));
#626=CARTESIAN_POINT('',(44.21042,75.,-19.));
#627=CARTESIAN_POINT('',(39.21042,62.5,-19.));
#628=CARTESIAN_POINT('',(39.21042,75.,-19.));
#629=CARTESIAN_POINT('',(44.21042,62.5,-19.));
#630=CARTESIAN_POINT('Origin',(44.21042,62.5,-28.5));
#631=CARTESIAN_POINT('',(44.21042,62.5,-28.5));
#632=CARTESIAN_POINT('',(44.21042,62.5,-12.5));
#633=CARTESIAN_POINT('',(39.21042,62.5,-28.5));
#634=CARTESIAN_POINT('',(39.21042,62.5,-12.5));
#635=CARTESIAN_POINT('',(44.21042,62.5,-28.5));
#636=CARTESIAN_POINT('Origin',(44.21042,75.,-28.5));
#637=CARTESIAN_POINT('',(44.21042,75.,-28.5));
#638=CARTESIAN_POINT('',(44.21042,75.,-28.5));
#639=CARTESIAN_POINT('',(39.21042,75.,-28.5));
#640=CARTESIAN_POINT('',(39.21042,75.,-28.5));
#641=CARTESIAN_POINT('',(44.21042,75.,-28.5));
#642=CARTESIAN_POINT('Origin',(44.21042,75.,-32.5));
#643=CARTESIAN_POINT('',(44.21042,75.,-36.5));
#644=CARTESIAN_POINT('Origin',(44.21042,75.,-32.5));
#645=CARTESIAN_POINT('',(39.21042,75.,-36.5));
#646=CARTESIAN_POINT('Origin',(39.21042,75.,-32.5));
#647=CARTESIAN_POINT('',(44.21042,75.,-36.5));
#648=CARTESIAN_POINT('Origin',(44.21042,62.5,-36.5));
#649=CARTESIAN_POINT('',(44.21042,75.,-36.5));
#650=CARTESIAN_POINT('',(39.21042,75.,-36.5));
#651=CARTESIAN_POINT('Origin',(44.21042,62.5,42.));
#652=CARTESIAN_POINT('',(44.21042,62.5,36.5));
#653=CARTESIAN_POINT('',(44.21042,62.5,42.));
#654=CARTESIAN_POINT('',(44.21042,62.5,12.5));
#655=CARTESIAN_POINT('',(39.21042,62.5,42.));
#656=CARTESIAN_POINT('',(44.21042,62.5,42.));
#657=CARTESIAN_POINT('',(39.21042,62.5,36.5));
#658=CARTESIAN_POINT('',(39.21042,62.5,12.5));
#659=CARTESIAN_POINT('',(44.21042,62.5,36.5));
#660=CARTESIAN_POINT('Origin',(44.21042,87.5,42.));
#661=CARTESIAN_POINT('',(44.21042,87.5,42.));
#662=CARTESIAN_POINT('',(44.21042,87.5,42.));
#663=CARTESIAN_POINT('',(39.21042,87.5,42.));
#664=CARTESIAN_POINT('',(44.21042,87.5,42.));
#665=CARTESIAN_POINT('',(39.21042,87.5,42.));
#666=CARTESIAN_POINT('Origin',(44.21042,87.5,1.77635683940025E-14));
#667=CARTESIAN_POINT('',(44.21042,87.5,12.5));
#668=CARTESIAN_POINT('',(39.21042,87.5,-12.5));
#669=CARTESIAN_POINT('Origin',(44.21042,62.5,11.));
#670=CARTESIAN_POINT('',(44.21042,62.5,11.));
#671=CARTESIAN_POINT('',(44.21042,62.5,12.5));
#672=CARTESIAN_POINT('',(39.21042,62.5,11.));
#673=CARTESIAN_POINT('',(44.21042,62.5,11.));
#674=CARTESIAN_POINT('',(39.21042,62.5,12.5));
#675=CARTESIAN_POINT('Origin',(44.21042,75.,11.));
#676=CARTESIAN_POINT('',(44.21042,75.,11.));
#677=CARTESIAN_POINT('',(44.21042,75.,11.));
#678=CARTESIAN_POINT('',(39.21042,75.,11.));
#679=CARTESIAN_POINT('',(44.21042,75.,11.));
#680=CARTESIAN_POINT('',(39.21042,75.,11.));
#681=CARTESIAN_POINT('Origin',(44.21042,75.,15.));
#682=CARTESIAN_POINT('',(44.21042,75.,19.));
#683=CARTESIAN_POINT('Origin',(44.21042,75.,15.));
#684=CARTESIAN_POINT('',(39.21042,75.,19.));
#685=CARTESIAN_POINT('',(44.21042,75.,19.));
#686=CARTESIAN_POINT('Origin',(39.21042,75.,15.));
#687=CARTESIAN_POINT('Origin',(44.21042,62.5,19.));
#688=CARTESIAN_POINT('',(44.21042,62.5,19.));
#689=CARTESIAN_POINT('',(44.21042,75.,19.));
#690=CARTESIAN_POINT('',(39.21042,62.5,19.));
#691=CARTESIAN_POINT('',(44.21042,62.5,19.));
#692=CARTESIAN_POINT('',(39.21042,75.,19.));
#693=CARTESIAN_POINT('Origin',(44.21042,62.5,28.5));
#694=CARTESIAN_POINT('',(44.21042,62.5,28.5));
#695=CARTESIAN_POINT('',(44.21042,62.5,12.5));
#696=CARTESIAN_POINT('',(39.21042,62.5,28.5));
#697=CARTESIAN_POINT('',(44.21042,62.5,28.5));
#698=CARTESIAN_POINT('',(39.21042,62.5,12.5));
#699=CARTESIAN_POINT('Origin',(44.21042,75.,28.5));
#700=CARTESIAN_POINT('',(44.21042,75.,28.5));
#701=CARTESIAN_POINT('',(44.21042,75.,28.5));
#702=CARTESIAN_POINT('',(39.21042,75.,28.5));
#703=CARTESIAN_POINT('',(44.21042,75.,28.5));
#704=CARTESIAN_POINT('',(39.21042,75.,28.5));
#705=CARTESIAN_POINT('Origin',(44.21042,75.,32.5));
#706=CARTESIAN_POINT('',(44.21042,75.,36.5));
#707=CARTESIAN_POINT('Origin',(44.21042,75.,32.5));
#708=CARTESIAN_POINT('',(39.21042,75.,36.5));
#709=CARTESIAN_POINT('',(44.21042,75.,36.5));
#710=CARTESIAN_POINT('Origin',(39.21042,75.,32.5));
#711=CARTESIAN_POINT('Origin',(44.21042,62.5,36.5));
#712=CARTESIAN_POINT('',(44.21042,75.,36.5));
#713=CARTESIAN_POINT('',(39.21042,75.,36.5));
#714=CARTESIAN_POINT('Origin',(44.21042,75.,21.));
#715=CARTESIAN_POINT('Origin',(39.21042,75.,21.));
#716=UNCERTAINTY_MEASURE_WITH_UNIT(LENGTH_MEASURE(0.01),#720,
'DISTANCE_ACCURACY_VALUE',
'Maximum model space distance between geometric entities at asserted c
onnectivities');
#717=UNCERTAINTY_MEASURE_WITH_UNIT(LENGTH_MEASURE(0.01),#720,
'DISTANCE_ACCURACY_VALUE',
'Maximum model space distance between geometric entities at asserted c
onnectivities');
#718=(
GEOMETRIC_REPRESENTATION_CONTEXT(3)
GLOBAL_UNCERTAINTY_ASSIGNED_CONTEXT((#716))
GLOBAL_UNIT_ASSIGNED_CONTEXT((#720,#722,#723))
REPRESENTATION_CONTEXT('','3D')
);
#719=(
GEOMETRIC_REPRESENTATION_CONTEXT(3)
GLOBAL_UNCERTAINTY_ASSIGNED_CONTEXT((#717))
GLOBAL_UNIT_ASSIGNED_CONTEXT((#720,#722,#723))
REPRESENTATION_CONTEXT('','3D')
);
#720=(
LENGTH_UNIT()
NAMED_UNIT(*)
SI_UNIT(.MILLI.,.METRE.)
);
#721=(
LENGTH_UNIT()
NAMED_UNIT(*)
SI_UNIT($,.METRE.)
);
#722=(
NAMED_UNIT(*)
PLANE_ANGLE_UNIT()
SI_UNIT($,.RADIAN.)
);
#723=(
NAMED_UNIT(*)
SI_UNIT($,.STERADIAN.)
SOLID_ANGLE_UNIT()
);
#724=SHAPE_DEFINITION_REPRESENTATION(#725,#726);
#725=PRODUCT_DEFINITION_SHAPE('',$,#728);
#726=SHAPE_REPRESENTATION('',(#448),#718);
#727=PRODUCT_DEFINITION_CONTEXT('part definition',#732,'design');
#728=PRODUCT_DEFINITION('FusionComponent','FusionComponent',#729,#727);
#729=PRODUCT_DEFINITION_FORMATION('',$,#734);
#730=PRODUCT_RELATED_PRODUCT_CATEGORY('FusionComponent',
'FusionComponent',(#734));
#731=APPLICATION_PROTOCOL_DEFINITION('international standard',
'automotive_design',2009,#732);
#732=APPLICATION_CONTEXT(
'Core Data for Automotive Mechanical Design Process');
#733=PRODUCT_CONTEXT('part definition',#732,'mechanical');
#734=PRODUCT('FusionComponent','FusionComponent',$,(#733));
#735=PRESENTATION_STYLE_ASSIGNMENT((#736));
#736=SURFACE_STYLE_USAGE(.BOTH.,#737);
#737=SURFACE_SIDE_STYLE('',(#738));
#738=SURFACE_STYLE_FILL_AREA(#739);
#739=FILL_AREA_STYLE('Acier - Rugueux',(#740));
#740=FILL_AREA_STYLE_COLOUR('Acier - Rugueux',#741);
#741=COLOUR_RGB('Acier - Rugueux',0.627450980392157,0.627450980392157,0.627450980392157);
ENDSEC;
END-ISO-10303-21;
