ISO-10303-21;
HEADER;
FILE_DESCRIPTION (( 'STEP AP203' ),
    '1' );
FILE_NAME ('Poulie.STEP',
    '2022-08-16T12:05:35',
    ( '' ),
    ( '' ),
    'SwSTEP 2.0',
    'SolidWorks 2020',
    '' );
FILE_SCHEMA (( 'CONFIG_CONTROL_DESIGN' ));
ENDSEC;

DATA;
#1 = PRODUCT ( 'Poulie', 'Poulie', '', ( #3 ) ) ;
#2 = AXIS2_PLACEMENT_3D ( 'NONE', #179, #69, #10 ) ;
#3 = MECHANICAL_CONTEXT ( 'NONE', #226, 'mechanical' ) ;
#4 = PERSON_AND_ORGANIZATION_ROLE ( 'classification_officer' ) ;
#5 = COORDINATED_UNIVERSAL_TIME_OFFSET ( 1, 0, .AHEAD. ) ;
#6 = DATE_AND_TIME ( #57, #75 ) ;
#7 = CARTESIAN_POINT ( 'NONE',  ( 0.000000000000000000, 0.000000000000000000, 0.000000000000000000 ) ) ;
#8 = CARTESIAN_POINT ( 'NONE',  ( 0.000000000000000000, 20.00000000000000355, 0.000000000000000000 ) ) ;
#9 = CIRCLE ( 'NONE', #196, 6.000000000000000888 ) ;
#10 = DIRECTION ( 'NONE',  ( 0.000000000000000000, 0.000000000000000000, 1.000000000000000000 ) ) ;
#11 = FACE_OUTER_BOUND ( 'NONE', #20, .T. ) ;
#12 = CARTESIAN_POINT ( 'NONE',  ( 8.000000000000000000, 0.000000000000000000, 0.000000000000000000 ) ) ;
#13 = PRODUCT_DEFINITION ( 'UNKNOWN', '', #86, #136 ) ;
#14 = DIRECTION ( 'NONE',  ( 0.000000000000000000, 0.000000000000000000, 1.000000000000000000 ) ) ;
#15 = CARTESIAN_POINT ( 'NONE',  ( 8.000000000000000000, 0.000000000000000000, 20.00000000000000000 ) ) ;
#16 = DIRECTION ( 'NONE',  ( -1.000000000000000000, -0.000000000000000000, -0.000000000000000000 ) ) ;
#17 = DATE_TIME_ROLE ( 'creation_date' ) ;
#18 = SECURITY_CLASSIFICATION_LEVEL ( 'unclassified' ) ;
#19 = CIRCLE ( 'NONE', #44, 6.000000000000000888 ) ;
#20 = EDGE_LOOP ( 'NONE', ( #162 ) ) ;
#21 = CC_DESIGN_PERSON_AND_ORGANIZATION_ASSIGNMENT ( #64, #227, ( #13 ) ) ;
#22 = ADVANCED_FACE ( 'NONE', ( #139, #122 ), #205, .T. ) ;
#23 = PERSON_AND_ORGANIZATION ( #95, #217 ) ;
#24 = COORDINATED_UNIVERSAL_TIME_OFFSET ( 1, 0, .AHEAD. ) ;
#25 = TOROIDAL_SURFACE ( 'NONE', #235, 17.00000000000000000, 2.000000000000000000 ) ;
#26 = DIRECTION ( 'NONE',  ( 0.000000000000000000, 0.000000000000000000, -1.000000000000000000 ) ) ;
#27 = CC_DESIGN_PERSON_AND_ORGANIZATION_ASSIGNMENT ( #170, #100, ( #86 ) ) ;
#28 = CYLINDRICAL_SURFACE ( 'NONE', #134, 20.00000000000000000 ) ;
#29 = AXIS2_PLACEMENT_3D ( 'NONE', #8, #105, #240 ) ;
#30 = AXIS2_PLACEMENT_3D ( 'NONE', #72, #204, #203 ) ;
#31 = EDGE_LOOP ( 'NONE', ( #175 ) ) ;
#32 = EDGE_CURVE ( 'NONE', #77, #77, #9, .T. ) ;
#33 = CARTESIAN_POINT ( 'NONE',  ( 0.000000000000000000, 0.000000000000000000, 0.000000000000000000 ) ) ;
#34 = DIRECTION ( 'NONE',  ( 0.000000000000000000, 0.000000000000000000, 1.000000000000000000 ) ) ;
#35 = APPLICATION_PROTOCOL_DEFINITION ( 'international standard', 'config_control_design', 1994, #226 ) ;
#36 = CARTESIAN_POINT ( 'NONE',  ( 0.000000000000000000, 0.000000000000000000, -6.000000000000000888 ) ) ;
#37 = APPROVAL ( #232, 'UNSPECIFIED' ) ;
#38 = DIRECTION ( 'NONE',  ( -1.000000000000000000, -0.000000000000000000, -0.000000000000000000 ) ) ;
#39 = APPROVAL_PERSON_ORGANIZATION ( #41, #216, #231 ) ;
#40 = PERSON_AND_ORGANIZATION ( #95, #217 ) ;
#41 = PERSON_AND_ORGANIZATION ( #95, #217 ) ;
#42 = EDGE_LOOP ( 'NONE', ( #132 ) ) ;
#43 = ADVANCED_FACE ( 'NONE', ( #195, #11 ), #28, .T. ) ;
#44 = AXIS2_PLACEMENT_3D ( 'NONE', #7, #161, #123 ) ;
#45 = ORIENTED_EDGE ( 'NONE', *, *, #127, .T. ) ;
#46 = DIRECTION ( 'NONE',  ( 1.000000000000000000, 0.000000000000000000, 0.000000000000000000 ) ) ;
#47 = ADVANCED_FACE ( 'NONE', ( #215, #181 ), #84, .F. ) ;
#48 = DIRECTION ( 'NONE',  ( -0.000000000000000000, 0.000000000000000000, 1.000000000000000000 ) ) ;
#49 = LOCAL_TIME ( 14, 5, 35.00000000000000000, #149 ) ;
#50 = DIRECTION ( 'NONE',  ( -1.000000000000000000, 0.000000000000000000, -0.000000000000000000 ) ) ;
#51 = FACE_OUTER_BOUND ( 'NONE', #42, .T. ) ;
#52 = CYLINDRICAL_SURFACE ( 'NONE', #30, 20.00000000000000355 ) ;
#53 = CIRCLE ( 'NONE', #74, 16.68717968319682399 ) ;
#54 = DIRECTION ( 'NONE',  ( 0.000000000000000000, 0.000000000000000000, 1.000000000000000000 ) ) ;
#55 =( LENGTH_UNIT ( ) NAMED_UNIT ( * ) SI_UNIT ( .MILLI., .METRE. ) );
#56 = CARTESIAN_POINT ( 'NONE',  ( 0.000000000000000000, 0.000000000000000000, 20.00000000000000355 ) ) ;
#57 = CALENDAR_DATE ( 2022, 16, 8 ) ;
#58 = DATE_AND_TIME ( #151, #230 ) ;
#59 = CIRCLE ( 'NONE', #90, 20.00000000000000355 ) ;
#60 = APPLICATION_CONTEXT ( 'configuration controlled 3d designs of mechanical parts and assemblies' ) ;
#61 = AXIS2_PLACEMENT_3D ( 'NONE', #165, #76, #145 ) ;
#62 = SECURITY_CLASSIFICATION ( '', '', #18 ) ;
#63 = APPLICATION_PROTOCOL_DEFINITION ( 'international standard', 'config_control_design', 1994, #60 ) ;
#64 = PERSON_AND_ORGANIZATION ( #95, #217 ) ;
#65 = EDGE_CURVE ( 'NONE', #111, #111, #59, .T. ) ;
#66 = ORIENTED_EDGE ( 'NONE', *, *, #109, .T. ) ;
#67 = ADVANCED_FACE ( 'NONE', ( #51, #85 ), #194, .F. ) ;
#68 = ORIENTED_EDGE ( 'NONE', *, *, #127, .F. ) ;
#69 = DIRECTION ( 'NONE',  ( -1.000000000000000000, -0.000000000000000000, -0.000000000000000000 ) ) ;
#70 = ORIENTED_EDGE ( 'NONE', *, *, #185, .T. ) ;
#71 = ORIENTED_EDGE ( 'NONE', *, *, #159, .T. ) ;
#72 = CARTESIAN_POINT ( 'NONE',  ( -6.778023308553621007, 0.000000000000000000, 0.000000000000000000 ) ) ;
#73 = CARTESIAN_POINT ( 'NONE',  ( 1.499999999999999556, 0.000000000000000000, 0.000000000000000000 ) ) ;
#74 = AXIS2_PLACEMENT_3D ( 'NONE', #206, #112, #129 ) ;
#75 = LOCAL_TIME ( 14, 5, 35.00000000000000000, #81 ) ;
#76 = DIRECTION ( 'NONE',  ( 0.000000000000000000, 0.000000000000000000, 1.000000000000000000 ) ) ;
#77 = VERTEX_POINT ( 'NONE', #113 ) ;
#78 = EDGE_CURVE ( 'NONE', #201, #201, #148, .T. ) ;
#79 = APPROVAL_DATE_TIME ( #6, #186 ) ;
#80 = ORIENTED_EDGE ( 'NONE', *, *, #159, .F. ) ;
#81 = COORDINATED_UNIVERSAL_TIME_OFFSET ( 1, 0, .AHEAD. ) ;
#82 = DATE_TIME_ROLE ( 'classification_date' ) ;
#83 = PERSON_AND_ORGANIZATION ( #95, #217 ) ;
#84 = PLANE ( 'NONE',  #29 ) ;
#85 = FACE_OUTER_BOUND ( 'NONE', #98, .T. ) ;
#86 = PRODUCT_DEFINITION_FORMATION_WITH_SPECIFIED_SOURCE ( 'ANY', '', #1, .NOT_KNOWN. ) ;
#87 = FACE_BOUND ( 'NONE', #138, .T. ) ;
#88 = DIRECTION ( 'NONE',  ( -1.000000000000000000, -0.000000000000000000, -0.000000000000000000 ) ) ;
#89 = FACE_OUTER_BOUND ( 'NONE', #141, .T. ) ;
#90 = AXIS2_PLACEMENT_3D ( 'NONE', #33, #88, #34 ) ;
#91 = CARTESIAN_POINT ( 'NONE',  ( 1.499999999999999556, 0.000000000000000000, 20.00000000000000000 ) ) ;
#92 = DIRECTION ( 'NONE',  ( -1.000000000000000000, -0.000000000000000000, -0.000000000000000000 ) ) ;
#93 = CARTESIAN_POINT ( 'NONE',  ( 2.024615619836187985, 0.000000000000000000, 0.000000000000000000 ) ) ;
#94 = CARTESIAN_POINT ( 'NONE',  ( 6.500000000000000888, 0.000000000000000000, 0.000000000000000000 ) ) ;
#95 = PERSON ( 'UNSPECIFIED', 'UNSPECIFIED', 'UNSPECIFIED', ('UNSPECIFIED'), ('UNSPECIFIED'), ('UNSPECIFIED') ) ;
#96 = APPROVAL_STATUS ( 'not_yet_approved' ) ;
#97 = CONICAL_SURFACE ( 'NONE', #234, 16.68717968319682399, 1.413741303691399942 ) ;
#98 = EDGE_LOOP ( 'NONE', ( #142 ) ) ;
#99 = APPROVAL_STATUS ( 'not_yet_approved' ) ;
#100 = PERSON_AND_ORGANIZATION_ROLE ( 'design_supplier' ) ;
#101 = APPROVAL_PERSON_ORGANIZATION ( #40, #37, #172 ) ;
#102 = EDGE_LOOP ( 'NONE', ( #174 ) ) ;
#103 = CARTESIAN_POINT ( 'NONE',  ( -6.778023308553621007, 0.000000000000000000, 0.000000000000000000 ) ) ;
#104 = ADVANCED_FACE ( 'NONE', ( #87, #160 ), #155, .F. ) ;
#105 = DIRECTION ( 'NONE',  ( 1.000000000000000000, 0.000000000000000000, 0.000000000000000000 ) ) ;
#106 = DIRECTION ( 'NONE',  ( 0.000000000000000000, 0.000000000000000000, 1.000000000000000000 ) ) ;
#107 = CARTESIAN_POINT ( 'NONE',  ( 0.000000000000000000, 0.000000000000000000, 0.000000000000000000 ) ) ;
#108 = VERTEX_POINT ( 'NONE', #91 ) ;
#109 = EDGE_CURVE ( 'NONE', #147, #147, #19, .T. ) ;
#110 = LOCAL_TIME ( 14, 5, 35.00000000000000000, #24 ) ;
#111 = VERTEX_POINT ( 'NONE', #56 ) ;
#112 = DIRECTION ( 'NONE',  ( -1.000000000000000000, -0.000000000000000000, -0.000000000000000000 ) ) ;
#113 = CARTESIAN_POINT ( 'NONE',  ( 8.000000000000000000, 0.000000000000000000, -6.000000000000000888 ) ) ;
#114 = APPROVAL_DATE_TIME ( #192, #37 ) ;
#115 = ORIENTED_EDGE ( 'NONE', *, *, #78, .F. ) ;
#116 = PERSON_AND_ORGANIZATION_ROLE ( 'creator' ) ;
#117 = APPROVAL_DATE_TIME ( #152, #216 ) ;
#118 = ADVANCED_FACE ( 'NONE', ( #89, #242 ), #97, .T. ) ;
#119 = EDGE_LOOP ( 'NONE', ( #80 ) ) ;
#120 = DIRECTION ( 'NONE',  ( 0.000000000000000000, 0.000000000000000000, -1.000000000000000000 ) ) ;
#121 = EDGE_LOOP ( 'NONE', ( #66 ) ) ;
#122 = FACE_OUTER_BOUND ( 'NONE', #214, .T. ) ;
#123 = DIRECTION ( 'NONE',  ( 0.000000000000000000, 0.000000000000000000, -1.000000000000000000 ) ) ;
#124 = ORIENTED_EDGE ( 'NONE', *, *, #65, .F. ) ;
#125 = CC_DESIGN_PERSON_AND_ORGANIZATION_ASSIGNMENT ( #154, #4, ( #62 ) ) ;
#126 = VERTEX_POINT ( 'NONE', #202 ) ;
#127 = EDGE_CURVE ( 'NONE', #108, #108, #156, .T. ) ;
#128 = CARTESIAN_POINT ( 'NONE',  ( 3.999999999999998224, 0.000000000000000000, 0.000000000000000000 ) ) ;
#129 = DIRECTION ( 'NONE',  ( 0.000000000000000000, 0.000000000000000000, 1.000000000000000000 ) ) ;
#130 = CARTESIAN_POINT ( 'NONE',  ( 2.024615619836187985, 0.000000000000000000, 0.000000000000000000 ) ) ;
#131 = SHAPE_DEFINITION_REPRESENTATION ( #248, #176 ) ;
#132 = ORIENTED_EDGE ( 'NONE', *, *, #109, .F. ) ;
#133 = CALENDAR_DATE ( 2022, 16, 8 ) ;
#134 = AXIS2_PLACEMENT_3D ( 'NONE', #103, #218, #106 ) ;
#135 = PERSON_AND_ORGANIZATION_ROLE ( 'design_owner' ) ;
#136 = DESIGN_CONTEXT ( 'detailed design', #60, 'design' ) ;
#137 = APPROVAL_ROLE ( '' ) ;
#138 = EDGE_LOOP ( 'NONE', ( #150 ) ) ;
#139 = FACE_BOUND ( 'NONE', #119, .T. ) ;
#140 = CARTESIAN_POINT ( 'NONE',  ( 8.000000000000000000, 0.000000000000000000, 0.000000000000000000 ) ) ;
#141 = EDGE_LOOP ( 'NONE', ( #68 ) ) ;
#142 = ORIENTED_EDGE ( 'NONE', *, *, #32, .T. ) ;
#143 = PRODUCT_RELATED_PRODUCT_CATEGORY ( 'detail', '', ( #1 ) ) ;
#144 = DIRECTION ( 'NONE',  ( 0.000000000000000000, 0.000000000000000000, 1.000000000000000000 ) ) ;
#145 = DIRECTION ( 'NONE',  ( 1.000000000000000000, 0.000000000000000000, 0.000000000000000000 ) ) ;
#146 = CARTESIAN_POINT ( 'NONE',  ( 5.975384380163808906, 0.000000000000000000, 16.68717968319682399 ) ) ;
#147 = VERTEX_POINT ( 'NONE', #36 ) ;
#148 = CIRCLE ( 'NONE', #2, 20.00000000000000000 ) ;
#149 = COORDINATED_UNIVERSAL_TIME_OFFSET ( 1, 0, .AHEAD. ) ;
#150 = ORIENTED_EDGE ( 'NONE', *, *, #32, .F. ) ;
#151 = CALENDAR_DATE ( 2022, 16, 8 ) ;
#152 = DATE_AND_TIME ( #133, #49 ) ;
#153 =( GEOMETRIC_REPRESENTATION_CONTEXT ( 3 ) GLOBAL_UNCERTAINTY_ASSIGNED_CONTEXT ( ( #211 ) ) GLOBAL_UNIT_ASSIGNED_CONTEXT ( ( #55, #246, #184 ) ) REPRESENTATION_CONTEXT ( 'NONE', 'WORKASPACE' ) );
#154 = PERSON_AND_ORGANIZATION ( #95, #217 ) ;
#155 = PLANE ( 'NONE',  #183 ) ;
#156 = CIRCLE ( 'NONE', #200, 20.00000000000000000 ) ;
#157 = CIRCLE ( 'NONE', #167, 16.68717968319682399 ) ;
#158 = EDGE_LOOP ( 'NONE', ( #45 ) ) ;
#159 = EDGE_CURVE ( 'NONE', #187, #187, #53, .T. ) ;
#160 = FACE_OUTER_BOUND ( 'NONE', #228, .T. ) ;
#161 = DIRECTION ( 'NONE',  ( 1.000000000000000000, 0.000000000000000000, 0.000000000000000000 ) ) ;
#162 = ORIENTED_EDGE ( 'NONE', *, *, #78, .T. ) ;
#163 = DIRECTION ( 'NONE',  ( 0.000000000000000000, 0.000000000000000000, 1.000000000000000000 ) ) ;
#164 = CC_DESIGN_DATE_AND_TIME_ASSIGNMENT ( #171, #17, ( #13 ) ) ;
#165 = CARTESIAN_POINT ( 'NONE',  ( 0.000000000000000000, 0.000000000000000000, 0.000000000000000000 ) ) ;
#166 = CLOSED_SHELL ( 'NONE', ( #47, #236, #118, #180, #22, #43, #104, #67 ) ) ;
#167 = AXIS2_PLACEMENT_3D ( 'NONE', #93, #222, #54 ) ;
#168 = DIRECTION ( 'NONE',  ( -1.000000000000000000, -0.000000000000000000, -0.000000000000000000 ) ) ;
#169 = CALENDAR_DATE ( 2022, 16, 8 ) ;
#170 = PERSON_AND_ORGANIZATION ( #95, #217 ) ;
#171 = DATE_AND_TIME ( #190, #110 ) ;
#172 = APPROVAL_ROLE ( '' ) ;
#173 = CC_DESIGN_SECURITY_CLASSIFICATION ( #62, ( #86 ) ) ;
#174 = ORIENTED_EDGE ( 'NONE', *, *, #185, .F. ) ;
#175 = ORIENTED_EDGE ( 'NONE', *, *, #178, .F. ) ;
#176 = ADVANCED_BREP_SHAPE_REPRESENTATION ( 'Poulie', ( #209, #61 ), #153 ) ;
#177 = AXIS2_PLACEMENT_3D ( 'NONE', #107, #239, #199 ) ;
#178 = EDGE_CURVE ( 'NONE', #126, #126, #208, .T. ) ;
#179 = CARTESIAN_POINT ( 'NONE',  ( 8.000000000000000000, 0.000000000000000000, 0.000000000000000000 ) ) ;
#180 = ADVANCED_FACE ( 'NONE', ( #244, #249 ), #25, .F. ) ;
#181 = FACE_OUTER_BOUND ( 'NONE', #213, .T. ) ;
#182 = DIRECTION ( 'NONE',  ( 1.000000000000000000, 0.000000000000000000, 0.000000000000000000 ) ) ;
#183 = AXIS2_PLACEMENT_3D ( 'NONE', #140, #50, #48 ) ;
#184 =( NAMED_UNIT ( * ) SI_UNIT ( $, .STERADIAN. ) SOLID_ANGLE_UNIT ( ) );
#185 = EDGE_CURVE ( 'NONE', #221, #221, #157, .T. ) ;
#186 = APPROVAL ( #99, 'UNSPECIFIED' ) ;
#187 = VERTEX_POINT ( 'NONE', #146 ) ;
#188 = CC_DESIGN_APPROVAL ( #216, ( #62 ) ) ;
#189 = CC_DESIGN_PERSON_AND_ORGANIZATION_ASSIGNMENT ( #193, #135, ( #1 ) ) ;
#190 = CALENDAR_DATE ( 2022, 16, 8 ) ;
#191 = LOCAL_TIME ( 14, 5, 35.00000000000000000, #5 ) ;
#192 = DATE_AND_TIME ( #169, #191 ) ;
#193 = PERSON_AND_ORGANIZATION ( #95, #217 ) ;
#194 = CYLINDRICAL_SURFACE ( 'NONE', #177, 6.000000000000000888 ) ;
#195 = FACE_OUTER_BOUND ( 'NONE', #31, .T. ) ;
#196 = AXIS2_PLACEMENT_3D ( 'NONE', #12, #182, #120 ) ;
#197 = ORIENTED_EDGE ( 'NONE', *, *, #65, .T. ) ;
#198 = EDGE_LOOP ( 'NONE', ( #70 ) ) ;
#199 = DIRECTION ( 'NONE',  ( 0.000000000000000000, 0.000000000000000000, -1.000000000000000000 ) ) ;
#200 = AXIS2_PLACEMENT_3D ( 'NONE', #73, #168, #14 ) ;
#201 = VERTEX_POINT ( 'NONE', #15 ) ;
#202 = CARTESIAN_POINT ( 'NONE',  ( 6.500000000000000888, 0.000000000000000000, 20.00000000000000000 ) ) ;
#203 = DIRECTION ( 'NONE',  ( 0.000000000000000000, 0.000000000000000000, 1.000000000000000000 ) ) ;
#204 = DIRECTION ( 'NONE',  ( -1.000000000000000000, -0.000000000000000000, -0.000000000000000000 ) ) ;
#205 = CONICAL_SURFACE ( 'NONE', #241, 20.00000000000000000, 1.413741303691398832 ) ;
#206 = CARTESIAN_POINT ( 'NONE',  ( 5.975384380163808906, 0.000000000000000000, 0.000000000000000000 ) ) ;
#207 = EDGE_LOOP ( 'NONE', ( #124 ) ) ;
#208 = CIRCLE ( 'NONE', #245, 20.00000000000000000 ) ;
#209 = MANIFOLD_SOLID_BREP ( 'Enlèv. mat.-Extru.1', #166 ) ;
#210 = COORDINATED_UNIVERSAL_TIME_OFFSET ( 1, 0, .AHEAD. ) ;
#211 = UNCERTAINTY_MEASURE_WITH_UNIT (LENGTH_MEASURE( 1.000000000000000082E-05 ), #55, 'distance_accuracy_value', 'NONE');
#212 = CC_DESIGN_APPROVAL ( #37, ( #13 ) ) ;
#213 = EDGE_LOOP ( 'NONE', ( #197 ) ) ;
#214 = EDGE_LOOP ( 'NONE', ( #237 ) ) ;
#215 = FACE_BOUND ( 'NONE', #121, .T. ) ;
#216 = APPROVAL ( #96, 'UNSPECIFIED' ) ;
#217 = ORGANIZATION ( 'UNSPECIFIED', 'UNSPECIFIED', '' ) ;
#218 = DIRECTION ( 'NONE',  ( -1.000000000000000000, -0.000000000000000000, -0.000000000000000000 ) ) ;
#219 = CC_DESIGN_APPROVAL ( #186, ( #86 ) ) ;
#220 = CARTESIAN_POINT ( 'NONE',  ( 6.500000000000000888, 0.000000000000000000, 0.000000000000000000 ) ) ;
#221 = VERTEX_POINT ( 'NONE', #243 ) ;
#222 = DIRECTION ( 'NONE',  ( -1.000000000000000000, -0.000000000000000000, -0.000000000000000000 ) ) ;
#223 = APPROVAL_PERSON_ORGANIZATION ( #23, #186, #137 ) ;
#224 = DIRECTION ( 'NONE',  ( 0.000000000000000000, 0.000000000000000000, 1.000000000000000000 ) ) ;
#225 = FACE_OUTER_BOUND ( 'NONE', #158, .T. ) ;
#226 = APPLICATION_CONTEXT ( 'configuration controlled 3d designs of mechanical parts and assemblies' ) ;
#227 = PERSON_AND_ORGANIZATION_ROLE ( 'creator' ) ;
#228 = EDGE_LOOP ( 'NONE', ( #115 ) ) ;
#229 = CC_DESIGN_PERSON_AND_ORGANIZATION_ASSIGNMENT ( #83, #116, ( #86 ) ) ;
#230 = LOCAL_TIME ( 14, 5, 35.00000000000000000, #210 ) ;
#231 = APPROVAL_ROLE ( '' ) ;
#232 = APPROVAL_STATUS ( 'not_yet_approved' ) ;
#233 = EDGE_LOOP ( 'NONE', ( #71 ) ) ;
#234 = AXIS2_PLACEMENT_3D ( 'NONE', #130, #16, #224 ) ;
#235 = AXIS2_PLACEMENT_3D ( 'NONE', #128, #38, #144 ) ;
#236 = ADVANCED_FACE ( 'NONE', ( #247, #225 ), #52, .T. ) ;
#237 = ORIENTED_EDGE ( 'NONE', *, *, #178, .T. ) ;
#238 = CC_DESIGN_DATE_AND_TIME_ASSIGNMENT ( #58, #82, ( #62 ) ) ;
#239 = DIRECTION ( 'NONE',  ( 1.000000000000000000, -0.000000000000000000, -0.000000000000000000 ) ) ;
#240 = DIRECTION ( 'NONE',  ( 0.000000000000000000, 0.000000000000000000, -1.000000000000000000 ) ) ;
#241 = AXIS2_PLACEMENT_3D ( 'NONE', #220, #46, #26 ) ;
#242 = FACE_BOUND ( 'NONE', #198, .T. ) ;
#243 = CARTESIAN_POINT ( 'NONE',  ( 2.024615619836187985, 0.000000000000000000, 16.68717968319682399 ) ) ;
#244 = FACE_OUTER_BOUND ( 'NONE', #102, .T. ) ;
#245 = AXIS2_PLACEMENT_3D ( 'NONE', #94, #92, #163 ) ;
#246 =( NAMED_UNIT ( * ) PLANE_ANGLE_UNIT ( ) SI_UNIT ( $, .RADIAN. ) );
#247 = FACE_OUTER_BOUND ( 'NONE', #207, .T. ) ;
#248 = PRODUCT_DEFINITION_SHAPE ( 'NONE', 'NONE',  #13 ) ;
#249 = FACE_OUTER_BOUND ( 'NONE', #233, .T. ) ;
ENDSEC;
END-ISO-10303-21;
