ISO-10303-21;
HEADER;
/* Generated by software containing ST-Developer
 * from STEP Tools, Inc. (www.steptools.com) 
 */

FILE_DESCRIPTION(
/* description */ (''),
/* implementation_level */ '2;1');

FILE_NAME(
/* name */ 
'C:/Users/Philippe/Desktop/MOBICO/Client/Deegle/Devis/Laser-final/Dir-
platine-direction.step',
/* time_stamp */ '2022-08-17T09:08:11+02:00',
/* author */ (''),
/* organization */ (''),
/* preprocessor_version */ 'ST-DEVELOPER v19',
/* originating_system */ 'Autodesk Translation Framework v11.7.0.108',
/* authorisation */ '');

FILE_SCHEMA (('AUTOMOTIVE_DESIGN { 1 0 10303 214 3 1 1 }'));
ENDSEC;

DATA;
#10=MECHANICAL_DESIGN_GEOMETRIC_PRESENTATION_REPRESENTATION('',(#13),#372);
#11=SHAPE_REPRESENTATION_RELATIONSHIP('SRR','None',#379,#12);
#12=ADVANCED_BREP_SHAPE_REPRESENTATION('',(#14),#371);
#13=STYLED_ITEM('',(#389),#14);
#14=MANIFOLD_SOLID_BREP('Corps1',#212);
#15=FACE_BOUND('',#47,.T.);
#16=FACE_BOUND('',#48,.T.);
#17=FACE_BOUND('',#49,.T.);
#18=FACE_BOUND('',#51,.T.);
#19=FACE_BOUND('',#52,.T.);
#20=FACE_BOUND('',#53,.T.);
#21=PLANE('',#238);
#22=PLANE('',#242);
#23=PLANE('',#246);
#24=PLANE('',#247);
#25=PLANE('',#248);
#26=FACE_OUTER_BOUND('',#37,.T.);
#27=FACE_OUTER_BOUND('',#38,.T.);
#28=FACE_OUTER_BOUND('',#39,.T.);
#29=FACE_OUTER_BOUND('',#40,.T.);
#30=FACE_OUTER_BOUND('',#41,.T.);
#31=FACE_OUTER_BOUND('',#42,.T.);
#32=FACE_OUTER_BOUND('',#43,.T.);
#33=FACE_OUTER_BOUND('',#44,.T.);
#34=FACE_OUTER_BOUND('',#45,.T.);
#35=FACE_OUTER_BOUND('',#46,.T.);
#36=FACE_OUTER_BOUND('',#50,.T.);
#37=EDGE_LOOP('',(#141,#142,#143,#144));
#38=EDGE_LOOP('',(#145,#146,#147,#148));
#39=EDGE_LOOP('',(#149,#150,#151,#152));
#40=EDGE_LOOP('',(#153,#154,#155,#156));
#41=EDGE_LOOP('',(#157,#158,#159,#160));
#42=EDGE_LOOP('',(#161,#162,#163,#164));
#43=EDGE_LOOP('',(#165,#166,#167,#168));
#44=EDGE_LOOP('',(#169,#170,#171,#172));
#45=EDGE_LOOP('',(#173,#174,#175,#176));
#46=EDGE_LOOP('',(#177,#178,#179,#180,#181,#182));
#47=EDGE_LOOP('',(#183));
#48=EDGE_LOOP('',(#184));
#49=EDGE_LOOP('',(#185));
#50=EDGE_LOOP('',(#186,#187,#188,#189,#190,#191));
#51=EDGE_LOOP('',(#192));
#52=EDGE_LOOP('',(#193));
#53=EDGE_LOOP('',(#194));
#54=LINE('',#317,#69);
#55=LINE('',#323,#70);
#56=LINE('',#329,#71);
#57=LINE('',#336,#72);
#58=LINE('',#339,#73);
#59=LINE('',#342,#74);
#60=LINE('',#344,#75);
#61=LINE('',#345,#76);
#62=LINE('',#351,#77);
#63=LINE('',#354,#78);
#64=LINE('',#356,#79);
#65=LINE('',#357,#80);
#66=LINE('',#363,#81);
#67=LINE('',#365,#82);
#68=LINE('',#366,#83);
#69=VECTOR('',#255,5.);
#70=VECTOR('',#262,5.);
#71=VECTOR('',#269,14.3);
#72=VECTOR('',#276,10.);
#73=VECTOR('',#279,10.);
#74=VECTOR('',#282,10.);
#75=VECTOR('',#283,10.);
#76=VECTOR('',#284,10.);
#77=VECTOR('',#291,10.);
#78=VECTOR('',#294,10.);
#79=VECTOR('',#295,10.);
#80=VECTOR('',#296,10.);
#81=VECTOR('',#303,10.);
#82=VECTOR('',#306,10.);
#83=VECTOR('',#307,10.);
#84=CIRCLE('',#227,5.);
#85=CIRCLE('',#228,5.);
#86=CIRCLE('',#230,5.);
#87=CIRCLE('',#231,5.);
#88=CIRCLE('',#233,14.3);
#89=CIRCLE('',#234,14.3);
#90=CIRCLE('',#236,13.);
#91=CIRCLE('',#237,13.);
#92=CIRCLE('',#240,20.);
#93=CIRCLE('',#241,20.);
#94=CIRCLE('',#244,13.);
#95=CIRCLE('',#245,13.);
#96=VERTEX_POINT('',#314);
#97=VERTEX_POINT('',#316);
#98=VERTEX_POINT('',#320);
#99=VERTEX_POINT('',#322);
#100=VERTEX_POINT('',#326);
#101=VERTEX_POINT('',#328);
#102=VERTEX_POINT('',#332);
#103=VERTEX_POINT('',#333);
#104=VERTEX_POINT('',#335);
#105=VERTEX_POINT('',#337);
#106=VERTEX_POINT('',#341);
#107=VERTEX_POINT('',#343);
#108=VERTEX_POINT('',#347);
#109=VERTEX_POINT('',#349);
#110=VERTEX_POINT('',#353);
#111=VERTEX_POINT('',#355);
#112=VERTEX_POINT('',#359);
#113=VERTEX_POINT('',#361);
#114=EDGE_CURVE('',#96,#96,#84,.T.);
#115=EDGE_CURVE('',#96,#97,#54,.T.);
#116=EDGE_CURVE('',#97,#97,#85,.T.);
#117=EDGE_CURVE('',#98,#98,#86,.T.);
#118=EDGE_CURVE('',#98,#99,#55,.T.);
#119=EDGE_CURVE('',#99,#99,#87,.T.);
#120=EDGE_CURVE('',#100,#100,#88,.T.);
#121=EDGE_CURVE('',#100,#101,#56,.T.);
#122=EDGE_CURVE('',#101,#101,#89,.T.);
#123=EDGE_CURVE('',#102,#103,#90,.T.);
#124=EDGE_CURVE('',#102,#104,#57,.T.);
#125=EDGE_CURVE('',#105,#104,#91,.T.);
#126=EDGE_CURVE('',#103,#105,#58,.T.);
#127=EDGE_CURVE('',#103,#106,#59,.T.);
#128=EDGE_CURVE('',#107,#105,#60,.T.);
#129=EDGE_CURVE('',#106,#107,#61,.T.);
#130=EDGE_CURVE('',#106,#108,#92,.T.);
#131=EDGE_CURVE('',#109,#107,#93,.T.);
#132=EDGE_CURVE('',#108,#109,#62,.T.);
#133=EDGE_CURVE('',#108,#110,#63,.T.);
#134=EDGE_CURVE('',#111,#109,#64,.T.);
#135=EDGE_CURVE('',#110,#111,#65,.T.);
#136=EDGE_CURVE('',#110,#112,#94,.T.);
#137=EDGE_CURVE('',#113,#111,#95,.T.);
#138=EDGE_CURVE('',#112,#113,#66,.T.);
#139=EDGE_CURVE('',#112,#102,#67,.T.);
#140=EDGE_CURVE('',#104,#113,#68,.T.);
#141=ORIENTED_EDGE('',*,*,#114,.F.);
#142=ORIENTED_EDGE('',*,*,#115,.T.);
#143=ORIENTED_EDGE('',*,*,#116,.F.);
#144=ORIENTED_EDGE('',*,*,#115,.F.);
#145=ORIENTED_EDGE('',*,*,#117,.F.);
#146=ORIENTED_EDGE('',*,*,#118,.T.);
#147=ORIENTED_EDGE('',*,*,#119,.F.);
#148=ORIENTED_EDGE('',*,*,#118,.F.);
#149=ORIENTED_EDGE('',*,*,#120,.F.);
#150=ORIENTED_EDGE('',*,*,#121,.T.);
#151=ORIENTED_EDGE('',*,*,#122,.F.);
#152=ORIENTED_EDGE('',*,*,#121,.F.);
#153=ORIENTED_EDGE('',*,*,#123,.F.);
#154=ORIENTED_EDGE('',*,*,#124,.T.);
#155=ORIENTED_EDGE('',*,*,#125,.F.);
#156=ORIENTED_EDGE('',*,*,#126,.F.);
#157=ORIENTED_EDGE('',*,*,#127,.F.);
#158=ORIENTED_EDGE('',*,*,#126,.T.);
#159=ORIENTED_EDGE('',*,*,#128,.F.);
#160=ORIENTED_EDGE('',*,*,#129,.F.);
#161=ORIENTED_EDGE('',*,*,#130,.F.);
#162=ORIENTED_EDGE('',*,*,#129,.T.);
#163=ORIENTED_EDGE('',*,*,#131,.F.);
#164=ORIENTED_EDGE('',*,*,#132,.F.);
#165=ORIENTED_EDGE('',*,*,#133,.F.);
#166=ORIENTED_EDGE('',*,*,#132,.T.);
#167=ORIENTED_EDGE('',*,*,#134,.F.);
#168=ORIENTED_EDGE('',*,*,#135,.F.);
#169=ORIENTED_EDGE('',*,*,#136,.F.);
#170=ORIENTED_EDGE('',*,*,#135,.T.);
#171=ORIENTED_EDGE('',*,*,#137,.F.);
#172=ORIENTED_EDGE('',*,*,#138,.F.);
#173=ORIENTED_EDGE('',*,*,#139,.F.);
#174=ORIENTED_EDGE('',*,*,#138,.T.);
#175=ORIENTED_EDGE('',*,*,#140,.F.);
#176=ORIENTED_EDGE('',*,*,#124,.F.);
#177=ORIENTED_EDGE('',*,*,#139,.T.);
#178=ORIENTED_EDGE('',*,*,#123,.T.);
#179=ORIENTED_EDGE('',*,*,#127,.T.);
#180=ORIENTED_EDGE('',*,*,#130,.T.);
#181=ORIENTED_EDGE('',*,*,#133,.T.);
#182=ORIENTED_EDGE('',*,*,#136,.T.);
#183=ORIENTED_EDGE('',*,*,#122,.T.);
#184=ORIENTED_EDGE('',*,*,#119,.T.);
#185=ORIENTED_EDGE('',*,*,#116,.T.);
#186=ORIENTED_EDGE('',*,*,#140,.T.);
#187=ORIENTED_EDGE('',*,*,#137,.T.);
#188=ORIENTED_EDGE('',*,*,#134,.T.);
#189=ORIENTED_EDGE('',*,*,#131,.T.);
#190=ORIENTED_EDGE('',*,*,#128,.T.);
#191=ORIENTED_EDGE('',*,*,#125,.T.);
#192=ORIENTED_EDGE('',*,*,#120,.T.);
#193=ORIENTED_EDGE('',*,*,#117,.T.);
#194=ORIENTED_EDGE('',*,*,#114,.T.);
#195=CYLINDRICAL_SURFACE('',#226,5.);
#196=CYLINDRICAL_SURFACE('',#229,5.);
#197=CYLINDRICAL_SURFACE('',#232,14.3);
#198=CYLINDRICAL_SURFACE('',#235,13.);
#199=CYLINDRICAL_SURFACE('',#239,20.);
#200=CYLINDRICAL_SURFACE('',#243,13.);
#201=ADVANCED_FACE('',(#26),#195,.F.);
#202=ADVANCED_FACE('',(#27),#196,.F.);
#203=ADVANCED_FACE('',(#28),#197,.F.);
#204=ADVANCED_FACE('',(#29),#198,.T.);
#205=ADVANCED_FACE('',(#30),#21,.T.);
#206=ADVANCED_FACE('',(#31),#199,.T.);
#207=ADVANCED_FACE('',(#32),#22,.T.);
#208=ADVANCED_FACE('',(#33),#200,.T.);
#209=ADVANCED_FACE('',(#34),#23,.T.);
#210=ADVANCED_FACE('',(#35,#15,#16,#17),#24,.T.);
#211=ADVANCED_FACE('',(#36,#18,#19,#20),#25,.F.);
#212=CLOSED_SHELL('',(#201,#202,#203,#204,#205,#206,#207,#208,#209,#210,
#211));
#213=DERIVED_UNIT_ELEMENT(#215,1.);
#214=DERIVED_UNIT_ELEMENT(#374,-3.);
#215=(
MASS_UNIT()
NAMED_UNIT(*)
SI_UNIT(.KILO.,.GRAM.)
);
#216=DERIVED_UNIT((#213,#214));
#217=MEASURE_REPRESENTATION_ITEM('density measure',
POSITIVE_RATIO_MEASURE(7850.),#216);
#218=PROPERTY_DEFINITION_REPRESENTATION(#223,#220);
#219=PROPERTY_DEFINITION_REPRESENTATION(#224,#221);
#220=REPRESENTATION('material name',(#222),#371);
#221=REPRESENTATION('density',(#217),#371);
#222=DESCRIPTIVE_REPRESENTATION_ITEM('Acier','Acier');
#223=PROPERTY_DEFINITION('material property','material name',#381);
#224=PROPERTY_DEFINITION('material property','density of part',#381);
#225=AXIS2_PLACEMENT_3D('placement',#312,#249,#250);
#226=AXIS2_PLACEMENT_3D('',#313,#251,#252);
#227=AXIS2_PLACEMENT_3D('',#315,#253,#254);
#228=AXIS2_PLACEMENT_3D('',#318,#256,#257);
#229=AXIS2_PLACEMENT_3D('',#319,#258,#259);
#230=AXIS2_PLACEMENT_3D('',#321,#260,#261);
#231=AXIS2_PLACEMENT_3D('',#324,#263,#264);
#232=AXIS2_PLACEMENT_3D('',#325,#265,#266);
#233=AXIS2_PLACEMENT_3D('',#327,#267,#268);
#234=AXIS2_PLACEMENT_3D('',#330,#270,#271);
#235=AXIS2_PLACEMENT_3D('',#331,#272,#273);
#236=AXIS2_PLACEMENT_3D('',#334,#274,#275);
#237=AXIS2_PLACEMENT_3D('',#338,#277,#278);
#238=AXIS2_PLACEMENT_3D('',#340,#280,#281);
#239=AXIS2_PLACEMENT_3D('',#346,#285,#286);
#240=AXIS2_PLACEMENT_3D('',#348,#287,#288);
#241=AXIS2_PLACEMENT_3D('',#350,#289,#290);
#242=AXIS2_PLACEMENT_3D('',#352,#292,#293);
#243=AXIS2_PLACEMENT_3D('',#358,#297,#298);
#244=AXIS2_PLACEMENT_3D('',#360,#299,#300);
#245=AXIS2_PLACEMENT_3D('',#362,#301,#302);
#246=AXIS2_PLACEMENT_3D('',#364,#304,#305);
#247=AXIS2_PLACEMENT_3D('',#367,#308,#309);
#248=AXIS2_PLACEMENT_3D('',#368,#310,#311);
#249=DIRECTION('axis',(0.,0.,1.));
#250=DIRECTION('refdir',(1.,0.,0.));
#251=DIRECTION('center_axis',(0.,-1.,0.));
#252=DIRECTION('ref_axis',(1.,0.,0.));
#253=DIRECTION('center_axis',(0.,1.,0.));
#254=DIRECTION('ref_axis',(1.,0.,0.));
#255=DIRECTION('',(0.,1.,0.));
#256=DIRECTION('center_axis',(0.,-1.,0.));
#257=DIRECTION('ref_axis',(1.,0.,0.));
#258=DIRECTION('center_axis',(0.,-1.,0.));
#259=DIRECTION('ref_axis',(1.,0.,0.));
#260=DIRECTION('center_axis',(0.,1.,0.));
#261=DIRECTION('ref_axis',(1.,0.,0.));
#262=DIRECTION('',(0.,1.,0.));
#263=DIRECTION('center_axis',(0.,-1.,0.));
#264=DIRECTION('ref_axis',(1.,0.,0.));
#265=DIRECTION('center_axis',(0.,-1.,0.));
#266=DIRECTION('ref_axis',(1.,0.,0.));
#267=DIRECTION('center_axis',(0.,1.,0.));
#268=DIRECTION('ref_axis',(1.,0.,0.));
#269=DIRECTION('',(0.,1.,0.));
#270=DIRECTION('center_axis',(0.,-1.,0.));
#271=DIRECTION('ref_axis',(1.,0.,0.));
#272=DIRECTION('center_axis',(0.,-1.,0.));
#273=DIRECTION('ref_axis',(1.,0.,0.));
#274=DIRECTION('center_axis',(0.,1.,0.));
#275=DIRECTION('ref_axis',(1.,0.,0.));
#276=DIRECTION('',(0.,-1.,0.));
#277=DIRECTION('center_axis',(0.,-1.,0.));
#278=DIRECTION('ref_axis',(1.,0.,0.));
#279=DIRECTION('',(0.,-1.,0.));
#280=DIRECTION('center_axis',(0.653931998223944,0.,-0.75655333037324));
#281=DIRECTION('ref_axis',(0.75655333037324,0.,0.653931998223944));
#282=DIRECTION('',(-0.75655333037324,0.,-0.653931998223944));
#283=DIRECTION('',(0.75655333037324,0.,0.653931998223944));
#284=DIRECTION('',(0.,-1.,0.));
#285=DIRECTION('center_axis',(0.,-1.,0.));
#286=DIRECTION('ref_axis',(1.,0.,0.));
#287=DIRECTION('center_axis',(0.,1.,0.));
#288=DIRECTION('ref_axis',(1.,0.,0.));
#289=DIRECTION('center_axis',(0.,-1.,0.));
#290=DIRECTION('ref_axis',(1.,0.,0.));
#291=DIRECTION('',(0.,-1.,0.));
#292=DIRECTION('center_axis',(-0.653931998223944,0.,-0.75655333037324));
#293=DIRECTION('ref_axis',(0.75655333037324,0.,-0.653931998223944));
#294=DIRECTION('',(-0.75655333037324,0.,0.653931998223944));
#295=DIRECTION('',(0.75655333037324,0.,-0.653931998223944));
#296=DIRECTION('',(0.,-1.,0.));
#297=DIRECTION('center_axis',(0.,-1.,0.));
#298=DIRECTION('ref_axis',(-0.937164161279453,0.,0.34888871408141));
#299=DIRECTION('center_axis',(0.,1.,0.));
#300=DIRECTION('ref_axis',(1.,0.,0.));
#301=DIRECTION('center_axis',(0.,-1.,0.));
#302=DIRECTION('ref_axis',(1.,0.,0.));
#303=DIRECTION('',(0.,-1.,0.));
#304=DIRECTION('center_axis',(0.,0.,1.));
#305=DIRECTION('ref_axis',(-1.,0.,0.));
#306=DIRECTION('',(1.,0.,0.));
#307=DIRECTION('',(-1.,0.,0.));
#308=DIRECTION('center_axis',(0.,1.,0.));
#309=DIRECTION('ref_axis',(1.,0.,0.));
#310=DIRECTION('center_axis',(0.,1.,0.));
#311=DIRECTION('ref_axis',(1.,0.,0.));
#312=CARTESIAN_POINT('',(0.,0.,0.));
#313=CARTESIAN_POINT('Origin',(-35.,0.,21.));
#314=CARTESIAN_POINT('',(-40.,-5.,21.));
#315=CARTESIAN_POINT('Origin',(-35.,-5.,21.));
#316=CARTESIAN_POINT('',(-40.,0.,21.));
#317=CARTESIAN_POINT('',(-40.,0.,21.));
#318=CARTESIAN_POINT('Origin',(-35.,0.,21.));
#319=CARTESIAN_POINT('Origin',(35.,0.,21.));
#320=CARTESIAN_POINT('',(30.,-5.,21.));
#321=CARTESIAN_POINT('Origin',(35.,-5.,21.));
#322=CARTESIAN_POINT('',(30.,0.,21.));
#323=CARTESIAN_POINT('',(30.,0.,21.));
#324=CARTESIAN_POINT('Origin',(35.,0.,21.));
#325=CARTESIAN_POINT('Origin',(0.,0.,0.));
#326=CARTESIAN_POINT('',(-14.3,-5.,1.75124492278072E-15));
#327=CARTESIAN_POINT('Origin',(0.,-5.,0.));
#328=CARTESIAN_POINT('',(-14.3,0.,1.75124492278072E-15));
#329=CARTESIAN_POINT('',(-14.3,0.,-1.75124492278072E-15));
#330=CARTESIAN_POINT('Origin',(0.,0.,0.));
#331=CARTESIAN_POINT('Origin',(35.,0.,21.));
#332=CARTESIAN_POINT('',(35.,0.,34.));
#333=CARTESIAN_POINT('',(43.5011159769113,0.,11.1648067051479));
#334=CARTESIAN_POINT('Origin',(35.,0.,21.));
#335=CARTESIAN_POINT('',(35.,-5.,34.));
#336=CARTESIAN_POINT('',(35.,0.,34.));
#337=CARTESIAN_POINT('',(43.5011159769113,-5.,11.1648067051479));
#338=CARTESIAN_POINT('Origin',(35.,-5.,21.));
#339=CARTESIAN_POINT('',(43.5011159769113,0.,11.1648067051479));
#340=CARTESIAN_POINT('Origin',(13.0786399644789,0.,-15.1310666074648));
#341=CARTESIAN_POINT('',(13.0786399644789,0.,-15.1310666074648));
#342=CARTESIAN_POINT('',(43.5011159769113,0.,11.1648067051479));
#343=CARTESIAN_POINT('',(13.0786399644789,-5.,-15.1310666074648));
#344=CARTESIAN_POINT('',(43.5011159769113,-5.,11.1648067051479));
#345=CARTESIAN_POINT('',(13.0786399644789,0.,-15.1310666074648));
#346=CARTESIAN_POINT('Origin',(0.,0.,0.));
#347=CARTESIAN_POINT('',(-13.0786399644789,0.,-15.1310666074648));
#348=CARTESIAN_POINT('Origin',(0.,0.,0.));
#349=CARTESIAN_POINT('',(-13.0786399644789,-5.,-15.1310666074648));
#350=CARTESIAN_POINT('Origin',(0.,-5.,0.));
#351=CARTESIAN_POINT('',(-13.0786399644789,0.,-15.1310666074648));
#352=CARTESIAN_POINT('Origin',(-43.5011159769113,0.,11.1648067051479));
#353=CARTESIAN_POINT('',(-43.5011159769113,0.,11.1648067051479));
#354=CARTESIAN_POINT('',(-13.0786399644789,0.,-15.1310666074648));
#355=CARTESIAN_POINT('',(-43.5011159769113,-5.,11.1648067051479));
#356=CARTESIAN_POINT('',(-13.0786399644789,-5.,-15.1310666074648));
#357=CARTESIAN_POINT('',(-43.5011159769113,0.,11.1648067051479));
#358=CARTESIAN_POINT('Origin',(-35.,0.,21.));
#359=CARTESIAN_POINT('',(-35.,0.,34.));
#360=CARTESIAN_POINT('Origin',(-35.,0.,21.));
#361=CARTESIAN_POINT('',(-35.,-5.,34.));
#362=CARTESIAN_POINT('Origin',(-35.,-5.,21.));
#363=CARTESIAN_POINT('',(-35.,0.,34.));
#364=CARTESIAN_POINT('Origin',(35.,0.,34.));
#365=CARTESIAN_POINT('',(-35.,0.,34.));
#366=CARTESIAN_POINT('',(-35.,-5.,34.));
#367=CARTESIAN_POINT('Origin',(0.,0.,7.));
#368=CARTESIAN_POINT('Origin',(0.,-5.,7.));
#369=UNCERTAINTY_MEASURE_WITH_UNIT(LENGTH_MEASURE(0.01),#373,
'DISTANCE_ACCURACY_VALUE',
'Maximum model space distance between geometric entities at asserted c
onnectivities');
#370=UNCERTAINTY_MEASURE_WITH_UNIT(LENGTH_MEASURE(0.01),#373,
'DISTANCE_ACCURACY_VALUE',
'Maximum model space distance between geometric entities at asserted c
onnectivities');
#371=(
GEOMETRIC_REPRESENTATION_CONTEXT(3)
GLOBAL_UNCERTAINTY_ASSIGNED_CONTEXT((#369))
GLOBAL_UNIT_ASSIGNED_CONTEXT((#373,#375,#376))
REPRESENTATION_CONTEXT('','3D')
);
#372=(
GEOMETRIC_REPRESENTATION_CONTEXT(3)
GLOBAL_UNCERTAINTY_ASSIGNED_CONTEXT((#370))
GLOBAL_UNIT_ASSIGNED_CONTEXT((#373,#375,#376))
REPRESENTATION_CONTEXT('','3D')
);
#373=(
LENGTH_UNIT()
NAMED_UNIT(*)
SI_UNIT(.MILLI.,.METRE.)
);
#374=(
LENGTH_UNIT()
NAMED_UNIT(*)
SI_UNIT($,.METRE.)
);
#375=(
NAMED_UNIT(*)
PLANE_ANGLE_UNIT()
SI_UNIT($,.RADIAN.)
);
#376=(
NAMED_UNIT(*)
SI_UNIT($,.STERADIAN.)
SOLID_ANGLE_UNIT()
);
#377=SHAPE_DEFINITION_REPRESENTATION(#378,#379);
#378=PRODUCT_DEFINITION_SHAPE('',$,#381);
#379=SHAPE_REPRESENTATION('',(#225),#371);
#380=PRODUCT_DEFINITION_CONTEXT('part definition',#385,'design');
#381=PRODUCT_DEFINITION('FusionComponent','FusionComponent',#382,#380);
#382=PRODUCT_DEFINITION_FORMATION('',$,#387);
#383=PRODUCT_RELATED_PRODUCT_CATEGORY('FusionComponent',
'FusionComponent',(#387));
#384=APPLICATION_PROTOCOL_DEFINITION('international standard',
'automotive_design',2009,#385);
#385=APPLICATION_CONTEXT(
'Core Data for Automotive Mechanical Design Process');
#386=PRODUCT_CONTEXT('part definition',#385,'mechanical');
#387=PRODUCT('FusionComponent','FusionComponent',$,(#386));
#388=PRESENTATION_STYLE_ASSIGNMENT((#390));
#389=PRESENTATION_STYLE_ASSIGNMENT((#391));
#390=SURFACE_STYLE_USAGE(.BOTH.,#392);
#391=SURFACE_STYLE_USAGE(.BOTH.,#393);
#392=SURFACE_SIDE_STYLE('',(#394));
#393=SURFACE_SIDE_STYLE('',(#395));
#394=SURFACE_STYLE_FILL_AREA(#396);
#395=SURFACE_STYLE_FILL_AREA(#397);
#396=FILL_AREA_STYLE('Acier - Satin\X\E9',(#398));
#397=FILL_AREA_STYLE('Acier - Satin\X\E9',(#399));
#398=FILL_AREA_STYLE_COLOUR('Acier - Satin\X\E9',#400);
#399=FILL_AREA_STYLE_COLOUR('Acier - Satin\X\E9',#401);
#400=COLOUR_RGB('Acier - Satin\X\E9',0.627450980392157,0.627450980392157,
0.627450980392157);
#401=COLOUR_RGB('Acier - Satin\X\E9',0.627450980392157,0.627450980392157,
0.627450980392157);
ENDSEC;
END-ISO-10303-21;
