ISO-10303-21;
HEADER;
/* Generated by software containing ST-Developer
 * from STEP Tools, Inc. (www.steptools.com) 
 */

FILE_DESCRIPTION(
/* description */ (''),
/* implementation_level */ '2;1');

FILE_NAME(
/* name */ 'C:/Users/guill/Desktop/HAB.0019 CANON CADRAN v15.step',
/* time_stamp */ '2022-08-17T08:07:47+02:00',
/* author */ (''),
/* organization */ (''),
/* preprocessor_version */ 'ST-DEVELOPER v19',
/* originating_system */ 'Autodesk Translation Framework v11.7.0.108',
/* authorisation */ '');

FILE_SCHEMA (('AUTOMOTIVE_DESIGN { 1 0 10303 214 3 1 1 }'));
ENDSEC;

DATA;
#10=MECHANICAL_DESIGN_GEOMETRIC_PRESENTATION_REPRESENTATION('',(#13),#313);
#11=SHAPE_REPRESENTATION_RELATIONSHIP('SRR','None',#320,#12);
#12=ADVANCED_BREP_SHAPE_REPRESENTATION('',(#14),#312);
#13=STYLED_ITEM('',(#330),#14);
#14=MANIFOLD_SOLID_BREP('Corps1',#163);
#15=TOROIDAL_SURFACE('',#186,8.5,0.25);
#16=TOROIDAL_SURFACE('',#194,9.05,0.25);
#17=TOROIDAL_SURFACE('',#200,8.95,0.25);
#18=FACE_BOUND('',#40,.T.);
#19=FACE_BOUND('',#43,.T.);
#20=FACE_BOUND('',#49,.T.);
#21=PLANE('',#184);
#22=PLANE('',#191);
#23=PLANE('',#203);
#24=CYLINDRICAL_SURFACE('',#181,8.95);
#25=CYLINDRICAL_SURFACE('',#193,8.25);
#26=CYLINDRICAL_SURFACE('',#198,9.3);
#27=FACE_OUTER_BOUND('',#37,.T.);
#28=FACE_OUTER_BOUND('',#38,.T.);
#29=FACE_OUTER_BOUND('',#39,.T.);
#30=FACE_OUTER_BOUND('',#41,.T.);
#31=FACE_OUTER_BOUND('',#42,.T.);
#32=FACE_OUTER_BOUND('',#44,.T.);
#33=FACE_OUTER_BOUND('',#45,.T.);
#34=FACE_OUTER_BOUND('',#46,.T.);
#35=FACE_OUTER_BOUND('',#47,.T.);
#36=FACE_OUTER_BOUND('',#48,.T.);
#37=EDGE_LOOP('',(#110,#111,#112,#113,#114));
#38=EDGE_LOOP('',(#115,#116,#117,#118,#119,#120));
#39=EDGE_LOOP('',(#121));
#40=EDGE_LOOP('',(#122));
#41=EDGE_LOOP('',(#123,#124,#125,#126,#127));
#42=EDGE_LOOP('',(#128));
#43=EDGE_LOOP('',(#129));
#44=EDGE_LOOP('',(#130,#131,#132,#133,#134));
#45=EDGE_LOOP('',(#135,#136,#137,#138,#139));
#46=EDGE_LOOP('',(#140,#141,#142,#143,#144));
#47=EDGE_LOOP('',(#145,#146,#147,#148,#149));
#48=EDGE_LOOP('',(#150));
#49=EDGE_LOOP('',(#151));
#50=LINE('',#271,#54);
#51=LINE('',#277,#55);
#52=LINE('',#294,#56);
#53=LINE('',#303,#57);
#54=VECTOR('',#212,8.66132486540519);
#55=VECTOR('',#219,8.95);
#56=VECTOR('',#242,8.25);
#57=VECTOR('',#253,9.3);
#58=CIRCLE('',#178,8.95);
#59=CIRCLE('',#179,8.95);
#60=CIRCLE('',#180,8.37264973081037);
#61=CIRCLE('',#182,8.95);
#62=CIRCLE('',#183,8.95);
#63=CIRCLE('',#185,8.25);
#64=CIRCLE('',#187,8.25);
#65=CIRCLE('',#188,8.25);
#66=CIRCLE('',#189,0.25);
#67=CIRCLE('',#190,8.5);
#68=CIRCLE('',#192,9.05);
#69=CIRCLE('',#195,0.25);
#70=CIRCLE('',#196,9.3);
#71=CIRCLE('',#197,9.3);
#72=CIRCLE('',#199,9.3);
#73=CIRCLE('',#201,0.25);
#74=CIRCLE('',#202,8.95000010410995);
#75=VERTEX_POINT('',#266);
#76=VERTEX_POINT('',#267);
#77=VERTEX_POINT('',#270);
#78=VERTEX_POINT('',#274);
#79=VERTEX_POINT('',#275);
#80=VERTEX_POINT('',#280);
#81=VERTEX_POINT('',#283);
#82=VERTEX_POINT('',#284);
#83=VERTEX_POINT('',#287);
#84=VERTEX_POINT('',#291);
#85=VERTEX_POINT('',#296);
#86=VERTEX_POINT('',#298);
#87=VERTEX_POINT('',#302);
#88=VERTEX_POINT('',#306);
#89=EDGE_CURVE('',#75,#76,#58,.T.);
#90=EDGE_CURVE('',#76,#75,#59,.T.);
#91=EDGE_CURVE('',#75,#77,#50,.T.);
#92=EDGE_CURVE('',#77,#77,#60,.T.);
#93=EDGE_CURVE('',#78,#79,#61,.T.);
#94=EDGE_CURVE('',#78,#76,#51,.T.);
#95=EDGE_CURVE('',#79,#78,#62,.T.);
#96=EDGE_CURVE('',#80,#80,#63,.T.);
#97=EDGE_CURVE('',#81,#82,#64,.T.);
#98=EDGE_CURVE('',#82,#81,#65,.T.);
#99=EDGE_CURVE('',#81,#83,#66,.T.);
#100=EDGE_CURVE('',#83,#83,#67,.T.);
#101=EDGE_CURVE('',#84,#84,#68,.T.);
#102=EDGE_CURVE('',#82,#80,#52,.T.);
#103=EDGE_CURVE('',#84,#85,#69,.T.);
#104=EDGE_CURVE('',#85,#86,#70,.T.);
#105=EDGE_CURVE('',#86,#85,#71,.T.);
#106=EDGE_CURVE('',#86,#87,#53,.T.);
#107=EDGE_CURVE('',#87,#87,#72,.T.);
#108=EDGE_CURVE('',#79,#88,#73,.T.);
#109=EDGE_CURVE('',#88,#88,#74,.T.);
#110=ORIENTED_EDGE('',*,*,#89,.T.);
#111=ORIENTED_EDGE('',*,*,#90,.T.);
#112=ORIENTED_EDGE('',*,*,#91,.T.);
#113=ORIENTED_EDGE('',*,*,#92,.T.);
#114=ORIENTED_EDGE('',*,*,#91,.F.);
#115=ORIENTED_EDGE('',*,*,#93,.F.);
#116=ORIENTED_EDGE('',*,*,#94,.T.);
#117=ORIENTED_EDGE('',*,*,#89,.F.);
#118=ORIENTED_EDGE('',*,*,#90,.F.);
#119=ORIENTED_EDGE('',*,*,#94,.F.);
#120=ORIENTED_EDGE('',*,*,#95,.F.);
#121=ORIENTED_EDGE('',*,*,#92,.F.);
#122=ORIENTED_EDGE('',*,*,#96,.T.);
#123=ORIENTED_EDGE('',*,*,#97,.T.);
#124=ORIENTED_EDGE('',*,*,#98,.T.);
#125=ORIENTED_EDGE('',*,*,#99,.T.);
#126=ORIENTED_EDGE('',*,*,#100,.T.);
#127=ORIENTED_EDGE('',*,*,#99,.F.);
#128=ORIENTED_EDGE('',*,*,#101,.F.);
#129=ORIENTED_EDGE('',*,*,#100,.F.);
#130=ORIENTED_EDGE('',*,*,#97,.F.);
#131=ORIENTED_EDGE('',*,*,#98,.F.);
#132=ORIENTED_EDGE('',*,*,#102,.T.);
#133=ORIENTED_EDGE('',*,*,#96,.F.);
#134=ORIENTED_EDGE('',*,*,#102,.F.);
#135=ORIENTED_EDGE('',*,*,#101,.T.);
#136=ORIENTED_EDGE('',*,*,#103,.T.);
#137=ORIENTED_EDGE('',*,*,#104,.T.);
#138=ORIENTED_EDGE('',*,*,#105,.T.);
#139=ORIENTED_EDGE('',*,*,#103,.F.);
#140=ORIENTED_EDGE('',*,*,#105,.F.);
#141=ORIENTED_EDGE('',*,*,#106,.T.);
#142=ORIENTED_EDGE('',*,*,#107,.T.);
#143=ORIENTED_EDGE('',*,*,#106,.F.);
#144=ORIENTED_EDGE('',*,*,#104,.F.);
#145=ORIENTED_EDGE('',*,*,#93,.T.);
#146=ORIENTED_EDGE('',*,*,#108,.T.);
#147=ORIENTED_EDGE('',*,*,#109,.F.);
#148=ORIENTED_EDGE('',*,*,#108,.F.);
#149=ORIENTED_EDGE('',*,*,#95,.T.);
#150=ORIENTED_EDGE('',*,*,#107,.F.);
#151=ORIENTED_EDGE('',*,*,#109,.T.);
#152=CONICAL_SURFACE('',#177,8.66132486540519,0.523598775598299);
#153=ADVANCED_FACE('',(#27),#152,.T.);
#154=ADVANCED_FACE('',(#28),#24,.T.);
#155=ADVANCED_FACE('',(#29,#18),#21,.T.);
#156=ADVANCED_FACE('',(#30),#15,.T.);
#157=ADVANCED_FACE('',(#31,#19),#22,.T.);
#158=ADVANCED_FACE('',(#32),#25,.F.);
#159=ADVANCED_FACE('',(#33),#16,.T.);
#160=ADVANCED_FACE('',(#34),#26,.T.);
#161=ADVANCED_FACE('',(#35),#17,.F.);
#162=ADVANCED_FACE('',(#36,#20),#23,.T.);
#163=CLOSED_SHELL('',(#153,#154,#155,#156,#157,#158,#159,#160,#161,#162));
#164=DERIVED_UNIT_ELEMENT(#166,1.);
#165=DERIVED_UNIT_ELEMENT(#315,-3.);
#166=(
MASS_UNIT()
NAMED_UNIT(*)
SI_UNIT(.KILO.,.GRAM.)
);
#167=DERIVED_UNIT((#164,#165));
#168=MEASURE_REPRESENTATION_ITEM('density measure',
POSITIVE_RATIO_MEASURE(8000.),#167);
#169=PROPERTY_DEFINITION_REPRESENTATION(#174,#171);
#170=PROPERTY_DEFINITION_REPRESENTATION(#175,#172);
#171=REPRESENTATION('material name',(#173),#312);
#172=REPRESENTATION('density',(#168),#312);
#173=DESCRIPTIVE_REPRESENTATION_ITEM('Acier inoxydable, poli',
'Acier inoxydable, poli');
#174=PROPERTY_DEFINITION('material property','material name',#322);
#175=PROPERTY_DEFINITION('material property','density of part',#322);
#176=AXIS2_PLACEMENT_3D('placement',#264,#204,#205);
#177=AXIS2_PLACEMENT_3D('',#265,#206,#207);
#178=AXIS2_PLACEMENT_3D('',#268,#208,#209);
#179=AXIS2_PLACEMENT_3D('',#269,#210,#211);
#180=AXIS2_PLACEMENT_3D('',#272,#213,#214);
#181=AXIS2_PLACEMENT_3D('',#273,#215,#216);
#182=AXIS2_PLACEMENT_3D('',#276,#217,#218);
#183=AXIS2_PLACEMENT_3D('',#278,#220,#221);
#184=AXIS2_PLACEMENT_3D('',#279,#222,#223);
#185=AXIS2_PLACEMENT_3D('',#281,#224,#225);
#186=AXIS2_PLACEMENT_3D('',#282,#226,#227);
#187=AXIS2_PLACEMENT_3D('',#285,#228,#229);
#188=AXIS2_PLACEMENT_3D('',#286,#230,#231);
#189=AXIS2_PLACEMENT_3D('',#288,#232,#233);
#190=AXIS2_PLACEMENT_3D('',#289,#234,#235);
#191=AXIS2_PLACEMENT_3D('',#290,#236,#237);
#192=AXIS2_PLACEMENT_3D('',#292,#238,#239);
#193=AXIS2_PLACEMENT_3D('',#293,#240,#241);
#194=AXIS2_PLACEMENT_3D('',#295,#243,#244);
#195=AXIS2_PLACEMENT_3D('',#297,#245,#246);
#196=AXIS2_PLACEMENT_3D('',#299,#247,#248);
#197=AXIS2_PLACEMENT_3D('',#300,#249,#250);
#198=AXIS2_PLACEMENT_3D('',#301,#251,#252);
#199=AXIS2_PLACEMENT_3D('',#304,#254,#255);
#200=AXIS2_PLACEMENT_3D('',#305,#256,#257);
#201=AXIS2_PLACEMENT_3D('',#307,#258,#259);
#202=AXIS2_PLACEMENT_3D('',#308,#260,#261);
#203=AXIS2_PLACEMENT_3D('',#309,#262,#263);
#204=DIRECTION('axis',(0.,0.,1.));
#205=DIRECTION('refdir',(1.,0.,0.));
#206=DIRECTION('center_axis',(0.,-1.,0.));
#207=DIRECTION('ref_axis',(-1.,0.,0.));
#208=DIRECTION('center_axis',(0.,1.,0.));
#209=DIRECTION('ref_axis',(-1.,0.,0.));
#210=DIRECTION('center_axis',(0.,1.,0.));
#211=DIRECTION('ref_axis',(-1.,0.,0.));
#212=DIRECTION('',(-0.5,0.866025403784438,-6.12323399573677E-17));
#213=DIRECTION('center_axis',(0.,-1.,0.));
#214=DIRECTION('ref_axis',(-1.,0.,0.));
#215=DIRECTION('center_axis',(0.,-1.,0.));
#216=DIRECTION('ref_axis',(1.,0.,0.));
#217=DIRECTION('center_axis',(0.,-1.,0.));
#218=DIRECTION('ref_axis',(1.,0.,0.));
#219=DIRECTION('',(0.,1.,0.));
#220=DIRECTION('center_axis',(0.,-1.,0.));
#221=DIRECTION('ref_axis',(1.,0.,0.));
#222=DIRECTION('center_axis',(0.,1.,0.));
#223=DIRECTION('ref_axis',(0.,0.,1.));
#224=DIRECTION('center_axis',(0.,-1.,0.));
#225=DIRECTION('ref_axis',(1.,0.,0.));
#226=DIRECTION('center_axis',(0.,-1.,0.));
#227=DIRECTION('ref_axis',(0.,0.,-1.));
#228=DIRECTION('center_axis',(0.,1.,0.));
#229=DIRECTION('ref_axis',(-1.,0.,1.22464679914735E-16));
#230=DIRECTION('center_axis',(0.,1.,0.));
#231=DIRECTION('ref_axis',(-1.,0.,1.22464679914735E-16));
#232=DIRECTION('center_axis',(-1.,0.,-1.22464679914735E-16));
#233=DIRECTION('ref_axis',(-1.22464679914735E-16,0.,1.));
#234=DIRECTION('center_axis',(0.,-1.,0.));
#235=DIRECTION('ref_axis',(-1.,0.,1.22464679914735E-16));
#236=DIRECTION('center_axis',(0.,-1.,0.));
#237=DIRECTION('ref_axis',(0.,0.,-1.));
#238=DIRECTION('center_axis',(0.,1.,0.));
#239=DIRECTION('ref_axis',(-1.,0.,1.22464679914735E-16));
#240=DIRECTION('center_axis',(0.,-1.,0.));
#241=DIRECTION('ref_axis',(1.,0.,0.));
#242=DIRECTION('',(0.,1.,0.));
#243=DIRECTION('center_axis',(0.,-1.,0.));
#244=DIRECTION('ref_axis',(0.,0.,-1.));
#245=DIRECTION('center_axis',(-1.,0.,-1.22464679914735E-16));
#246=DIRECTION('ref_axis',(-1.22464679914735E-16,0.,1.));
#247=DIRECTION('center_axis',(0.,-1.,0.));
#248=DIRECTION('ref_axis',(-1.,0.,1.22464679914735E-16));
#249=DIRECTION('center_axis',(0.,-1.,0.));
#250=DIRECTION('ref_axis',(-1.,0.,1.22464679914735E-16));
#251=DIRECTION('center_axis',(0.,-1.,0.));
#252=DIRECTION('ref_axis',(1.,0.,0.));
#253=DIRECTION('',(0.,1.,0.));
#254=DIRECTION('center_axis',(0.,-1.,0.));
#255=DIRECTION('ref_axis',(1.,0.,0.));
#256=DIRECTION('center_axis',(0.,-1.,0.));
#257=DIRECTION('ref_axis',(0.,0.,-1.));
#258=DIRECTION('center_axis',(-1.,0.,-1.22464679914735E-16));
#259=DIRECTION('ref_axis',(-1.22464679914735E-16,0.,1.));
#260=DIRECTION('center_axis',(0.,-1.,0.));
#261=DIRECTION('ref_axis',(1.,0.,0.));
#262=DIRECTION('center_axis',(0.,1.,0.));
#263=DIRECTION('ref_axis',(0.,0.,1.));
#264=CARTESIAN_POINT('',(0.,0.,0.));
#265=CARTESIAN_POINT('Origin',(0.,7.5,0.));
#266=CARTESIAN_POINT('',(8.95,7.,-1.09605888523688E-15));
#267=CARTESIAN_POINT('',(-8.95,7.,-1.09605888523688E-15));
#268=CARTESIAN_POINT('Origin',(0.,7.,0.));
#269=CARTESIAN_POINT('Origin',(0.,7.,0.));
#270=CARTESIAN_POINT('',(8.37264973081037,8.,1.02535386932189E-15));
#271=CARTESIAN_POINT('',(8.66132486540519,7.5,1.06070637727938E-15));
#272=CARTESIAN_POINT('Origin',(0.,8.,0.));
#273=CARTESIAN_POINT('Origin',(0.,4.49999999999996,0.));
#274=CARTESIAN_POINT('',(-8.95,0.999999999999928,-1.09605888523688E-15));
#275=CARTESIAN_POINT('',(-1.09605888523688E-15,0.999999999999928,8.95));
#276=CARTESIAN_POINT('Origin',(0.,0.999999999999928,0.));
#277=CARTESIAN_POINT('',(-8.95,4.49999999999996,-1.09605888523688E-15));
#278=CARTESIAN_POINT('Origin',(0.,0.999999999999928,0.));
#279=CARTESIAN_POINT('Origin',(8.95,8.,0.));
#280=CARTESIAN_POINT('',(-8.25,8.,-1.01033360929657E-15));
#281=CARTESIAN_POINT('Origin',(0.,8.,0.));
#282=CARTESIAN_POINT('Origin',(0.,0.249999999999996,0.));
#283=CARTESIAN_POINT('',(-1.01033360929657E-15,0.249999999999996,8.25));
#284=CARTESIAN_POINT('',(-8.25,0.249999999999996,-1.01033360929657E-15));
#285=CARTESIAN_POINT('Origin',(0.,0.249999999999996,0.));
#286=CARTESIAN_POINT('Origin',(0.,0.249999999999996,0.));
#287=CARTESIAN_POINT('',(-1.04094977927525E-15,-3.67761376907083E-15,8.5));
#288=CARTESIAN_POINT('Origin',(-1.04094977927525E-15,0.249999999999996,
8.5));
#289=CARTESIAN_POINT('Origin',(0.,-3.67761376907083E-15,0.));
#290=CARTESIAN_POINT('Origin',(8.25,-3.67394041112855E-15,0.));
#291=CARTESIAN_POINT('',(-1.10830535322835E-15,-3.67761376907083E-15,9.05));
#292=CARTESIAN_POINT('Origin',(0.,-3.67761376907083E-15,0.));
#293=CARTESIAN_POINT('Origin',(0.,4.,0.));
#294=CARTESIAN_POINT('',(-8.25,4.,-1.01033360929657E-15));
#295=CARTESIAN_POINT('Origin',(0.,0.249999999999996,0.));
#296=CARTESIAN_POINT('',(-1.13892152320704E-15,0.249999999999996,9.3));
#297=CARTESIAN_POINT('Origin',(-1.10830535322835E-15,0.249999999999996,
9.05));
#298=CARTESIAN_POINT('',(-9.3,0.249999999999996,-1.13892152320704E-15));
#299=CARTESIAN_POINT('Origin',(0.,0.249999999999996,0.));
#300=CARTESIAN_POINT('Origin',(0.,0.249999999999996,0.));
#301=CARTESIAN_POINT('Origin',(0.,0.25,0.));
#302=CARTESIAN_POINT('',(-9.3,0.5,-1.13892152320704E-15));
#303=CARTESIAN_POINT('',(-9.3,0.25,-1.13892152320704E-15));
#304=CARTESIAN_POINT('Origin',(0.,0.5,0.));
#305=CARTESIAN_POINT('Origin',(0.,0.749999999999927,0.));
#306=CARTESIAN_POINT('',(-1.09605889798667E-15,0.499999999999948,8.95000010410995));
#307=CARTESIAN_POINT('Origin',(-1.09605888523688E-15,0.749999999999927,
8.95));
#308=CARTESIAN_POINT('Origin',(0.,0.499999999999948,0.));
#309=CARTESIAN_POINT('Origin',(9.3,0.5,0.));
#310=UNCERTAINTY_MEASURE_WITH_UNIT(LENGTH_MEASURE(0.01),#314,
'DISTANCE_ACCURACY_VALUE',
'Maximum model space distance between geometric entities at asserted c
onnectivities');
#311=UNCERTAINTY_MEASURE_WITH_UNIT(LENGTH_MEASURE(0.01),#314,
'DISTANCE_ACCURACY_VALUE',
'Maximum model space distance between geometric entities at asserted c
onnectivities');
#312=(
GEOMETRIC_REPRESENTATION_CONTEXT(3)
GLOBAL_UNCERTAINTY_ASSIGNED_CONTEXT((#310))
GLOBAL_UNIT_ASSIGNED_CONTEXT((#314,#316,#317))
REPRESENTATION_CONTEXT('','3D')
);
#313=(
GEOMETRIC_REPRESENTATION_CONTEXT(3)
GLOBAL_UNCERTAINTY_ASSIGNED_CONTEXT((#311))
GLOBAL_UNIT_ASSIGNED_CONTEXT((#314,#316,#317))
REPRESENTATION_CONTEXT('','3D')
);
#314=(
LENGTH_UNIT()
NAMED_UNIT(*)
SI_UNIT(.MILLI.,.METRE.)
);
#315=(
LENGTH_UNIT()
NAMED_UNIT(*)
SI_UNIT($,.METRE.)
);
#316=(
NAMED_UNIT(*)
PLANE_ANGLE_UNIT()
SI_UNIT($,.RADIAN.)
);
#317=(
NAMED_UNIT(*)
SI_UNIT($,.STERADIAN.)
SOLID_ANGLE_UNIT()
);
#318=SHAPE_DEFINITION_REPRESENTATION(#319,#320);
#319=PRODUCT_DEFINITION_SHAPE('',$,#322);
#320=SHAPE_REPRESENTATION('',(#176),#312);
#321=PRODUCT_DEFINITION_CONTEXT('part definition',#326,'design');
#322=PRODUCT_DEFINITION('HAB.0019 CANON CADRAN',
'HAB.0019 CANON CADRAN v15',#323,#321);
#323=PRODUCT_DEFINITION_FORMATION('',$,#328);
#324=PRODUCT_RELATED_PRODUCT_CATEGORY('HAB.0019 CANON CADRAN v15',
'HAB.0019 CANON CADRAN v15',(#328));
#325=APPLICATION_PROTOCOL_DEFINITION('international standard',
'automotive_design',2009,#326);
#326=APPLICATION_CONTEXT(
'Core Data for Automotive Mechanical Design Process');
#327=PRODUCT_CONTEXT('part definition',#326,'mechanical');
#328=PRODUCT('HAB.0019 CANON CADRAN','HAB.0019 CANON CADRAN v15',$,(#327));
#329=PRESENTATION_STYLE_ASSIGNMENT((#331));
#330=PRESENTATION_STYLE_ASSIGNMENT((#332));
#331=SURFACE_STYLE_USAGE(.BOTH.,#333);
#332=SURFACE_STYLE_USAGE(.BOTH.,#334);
#333=SURFACE_SIDE_STYLE('',(#335));
#334=SURFACE_SIDE_STYLE('',(#336));
#335=SURFACE_STYLE_FILL_AREA(#337);
#336=SURFACE_STYLE_FILL_AREA(#338);
#337=FILL_AREA_STYLE(
'{"label":"Unknown","meta":"EA46307F-1FD6-4B11-9C97-353B74F5E413","met
aName":"VisualMaterialValueMetaType","extra":""}',(#339));
#338=FILL_AREA_STYLE('KERIS INOX POLI BRILLANT',(#340));
#339=FILL_AREA_STYLE_COLOUR(
'{"label":"Unknown","meta":"EA46307F-1FD6-4B11-9C97-353B74F5E413","met
aName":"VisualMaterialValueMetaType","extra":""}',#341);
#340=FILL_AREA_STYLE_COLOUR('KERIS INOX POLI BRILLANT',#342);
#341=COLOUR_RGB(
'{"label":"Unknown","meta":"EA46307F-1FD6-4B11-9C97-353B74F5E413","met
aName":"VisualMaterialValueMetaType","extra":""}',0.,0.,0.);
#342=COLOUR_RGB('KERIS INOX POLI BRILLANT',1.,1.,1.);
ENDSEC;
END-ISO-10303-21;
