ISO-10303-21;
HEADER;
/* Generated by software containing ST-Developer
 * from STEP Tools, Inc. (www.steptools.com) 
 */
/* OPTION: using custom renumber hook */

FILE_DESCRIPTION(
/* description */ ('STEP AP242',
'CAx-IF Rec.Pracs.---Representation and Presentation of Product Manufa
cturing Information (PMI)---4.0---2014-10-13',
'CAx-IF Rec.Pracs.---3D Tessellated Geometry---0.4---2014-09-14','2;1'),

/* implementation_level */ '2;1');

FILE_NAME(
/* name */ '630394f1d8378103e4f668b2',
/* time_stamp */ '2022-08-22T14:38:42+00:00',
/* author */ (''),
/* organization */ (''),
/* preprocessor_version */ 'ST-DEVELOPER v18.102',
/* originating_system */ '  ',
/* authorisation */ '  ');

FILE_SCHEMA (('AP242_MANAGED_MODEL_BASED_3D_ENGINEERING_MIM_LF { 1 0 10303 442 1 1 4 }'));
ENDSEC;

DATA;
#10=SHAPE_REPRESENTATION_RELATIONSHIP('','',#111,#11);
#11=ADVANCED_BREP_SHAPE_REPRESENTATION('',(#109),#189);
#12=PLANE('',#116);
#13=PLANE('',#118);
#14=PLANE('',#122);
#15=PLANE('',#126);
#16=ORIENTED_EDGE('',*,*,#32,.F.);
#17=ORIENTED_EDGE('',*,*,#33,.T.);
#18=ORIENTED_EDGE('',*,*,#34,.F.);
#19=ORIENTED_EDGE('',*,*,#32,.T.);
#20=ORIENTED_EDGE('',*,*,#35,.F.);
#21=ORIENTED_EDGE('',*,*,#33,.F.);
#22=ORIENTED_EDGE('',*,*,#36,.F.);
#23=ORIENTED_EDGE('',*,*,#35,.T.);
#24=ORIENTED_EDGE('',*,*,#37,.F.);
#25=ORIENTED_EDGE('',*,*,#36,.T.);
#26=ORIENTED_EDGE('',*,*,#38,.F.);
#27=ORIENTED_EDGE('',*,*,#34,.T.);
#28=ORIENTED_EDGE('',*,*,#39,.F.);
#29=ORIENTED_EDGE('',*,*,#38,.T.);
#30=ORIENTED_EDGE('',*,*,#37,.T.);
#31=ORIENTED_EDGE('',*,*,#39,.T.);
#32=EDGE_CURVE('',#40,#40,#48,.T.);
#33=EDGE_CURVE('',#41,#41,#49,.T.);
#34=EDGE_CURVE('',#42,#42,#50,.T.);
#35=EDGE_CURVE('',#43,#43,#51,.T.);
#36=EDGE_CURVE('',#44,#44,#52,.T.);
#37=EDGE_CURVE('',#45,#45,#53,.T.);
#38=EDGE_CURVE('',#46,#46,#54,.T.);
#39=EDGE_CURVE('',#47,#47,#55,.T.);
#40=VERTEX_POINT('',#166);
#41=VERTEX_POINT('',#168);
#42=VERTEX_POINT('',#171);
#43=VERTEX_POINT('',#174);
#44=VERTEX_POINT('',#177);
#45=VERTEX_POINT('',#180);
#46=VERTEX_POINT('',#183);
#47=VERTEX_POINT('',#186);
#48=CIRCLE('',#114,0.065);
#49=CIRCLE('',#115,0.065);
#50=CIRCLE('',#117,0.0415);
#51=CIRCLE('',#119,0.04425);
#52=CIRCLE('',#121,0.04425);
#53=CIRCLE('',#123,0.0375);
#54=CIRCLE('',#125,0.0415);
#55=CIRCLE('',#127,0.0375);
#56=EDGE_LOOP('',(#16));
#57=EDGE_LOOP('',(#17));
#58=EDGE_LOOP('',(#18));
#59=EDGE_LOOP('',(#19));
#60=EDGE_LOOP('',(#20));
#61=EDGE_LOOP('',(#21));
#62=EDGE_LOOP('',(#22));
#63=EDGE_LOOP('',(#23));
#64=EDGE_LOOP('',(#24));
#65=EDGE_LOOP('',(#25));
#66=EDGE_LOOP('',(#26));
#67=EDGE_LOOP('',(#27));
#68=EDGE_LOOP('',(#28));
#69=EDGE_LOOP('',(#29));
#70=EDGE_LOOP('',(#30));
#71=EDGE_LOOP('',(#31));
#72=FACE_BOUND('',#56,.T.);
#73=FACE_BOUND('',#57,.T.);
#74=FACE_BOUND('',#58,.T.);
#75=FACE_BOUND('',#59,.T.);
#76=FACE_BOUND('',#60,.T.);
#77=FACE_BOUND('',#61,.T.);
#78=FACE_BOUND('',#62,.T.);
#79=FACE_BOUND('',#63,.T.);
#80=FACE_BOUND('',#64,.T.);
#81=FACE_BOUND('',#65,.T.);
#82=FACE_BOUND('',#66,.T.);
#83=FACE_BOUND('',#67,.T.);
#84=FACE_BOUND('',#68,.T.);
#85=FACE_BOUND('',#69,.T.);
#86=FACE_BOUND('',#70,.T.);
#87=FACE_BOUND('',#71,.T.);
#88=CYLINDRICAL_SURFACE('',#113,0.065);
#89=CYLINDRICAL_SURFACE('',#120,0.04425);
#90=CYLINDRICAL_SURFACE('',#124,0.0415);
#91=CYLINDRICAL_SURFACE('',#128,0.0375);
#92=ADVANCED_FACE('',(#72,#73),#88,.T.);
#93=ADVANCED_FACE('',(#74,#75),#12,.T.);
#94=ADVANCED_FACE('',(#76,#77),#13,.F.);
#95=ADVANCED_FACE('',(#78,#79),#89,.F.);
#96=ADVANCED_FACE('',(#80,#81),#14,.T.);
#97=ADVANCED_FACE('',(#82,#83),#90,.F.);
#98=ADVANCED_FACE('',(#84,#85),#15,.T.);
#99=ADVANCED_FACE('',(#86,#87),#91,.F.);
#100=CLOSED_SHELL('',(#92,#93,#94,#95,#96,#97,#98,#99));
#101=STYLED_ITEM('',(#102),#109);
#102=PRESENTATION_STYLE_ASSIGNMENT((#103));
#103=SURFACE_STYLE_USAGE(.BOTH.,#104);
#104=SURFACE_SIDE_STYLE('',(#105));
#105=SURFACE_STYLE_FILL_AREA(#106);
#106=FILL_AREA_STYLE('',(#107));
#107=FILL_AREA_STYLE_COLOUR('',#108);
#108=COLOUR_RGB('',0.615686274509804,0.811764705882353,0.929411764705882);
#109=MANIFOLD_SOLID_BREP('Bride Diff\X\E9rentiel/Cardan',#100);
#110=SHAPE_DEFINITION_REPRESENTATION(#194,#111);
#111=SHAPE_REPRESENTATION('Bride Diff\X\E9rentiel/Cardan',(#112),#189);
#112=AXIS2_PLACEMENT_3D('',#163,#129,#130);
#113=AXIS2_PLACEMENT_3D('',#164,#131,#132);
#114=AXIS2_PLACEMENT_3D('',#165,#133,#134);
#115=AXIS2_PLACEMENT_3D('',#167,#135,#136);
#116=AXIS2_PLACEMENT_3D('',#169,#137,#138);
#117=AXIS2_PLACEMENT_3D('',#170,#139,#140);
#118=AXIS2_PLACEMENT_3D('',#172,#141,#142);
#119=AXIS2_PLACEMENT_3D('',#173,#143,#144);
#120=AXIS2_PLACEMENT_3D('',#175,#145,#146);
#121=AXIS2_PLACEMENT_3D('',#176,#147,#148);
#122=AXIS2_PLACEMENT_3D('',#178,#149,#150);
#123=AXIS2_PLACEMENT_3D('',#179,#151,#152);
#124=AXIS2_PLACEMENT_3D('',#181,#153,#154);
#125=AXIS2_PLACEMENT_3D('',#182,#155,#156);
#126=AXIS2_PLACEMENT_3D('',#184,#157,#158);
#127=AXIS2_PLACEMENT_3D('',#185,#159,#160);
#128=AXIS2_PLACEMENT_3D('',#187,#161,#162);
#129=DIRECTION('',(0.,0.,1.));
#130=DIRECTION('',(1.,0.,0.));
#131=DIRECTION('',(-1.,0.,0.));
#132=DIRECTION('',(0.,0.,1.));
#133=DIRECTION('',(1.,0.,0.));
#134=DIRECTION('',(0.,0.,-1.));
#135=DIRECTION('',(1.,0.,0.));
#136=DIRECTION('',(0.,0.,-1.));
#137=DIRECTION('',(1.,0.,0.));
#138=DIRECTION('',(0.,1.,0.));
#139=DIRECTION('',(1.,0.,0.));
#140=DIRECTION('',(0.,0.,-1.));
#141=DIRECTION('',(1.,0.,0.));
#142=DIRECTION('',(0.,1.,0.));
#143=DIRECTION('',(-1.,0.,0.));
#144=DIRECTION('',(0.,0.,1.));
#145=DIRECTION('',(-1.,0.,0.));
#146=DIRECTION('',(0.,0.,1.));
#147=DIRECTION('',(-1.,0.,0.));
#148=DIRECTION('',(0.,0.,1.));
#149=DIRECTION('',(-1.,0.,0.));
#150=DIRECTION('',(0.,-1.,0.));
#151=DIRECTION('',(-1.,0.,0.));
#152=DIRECTION('',(0.,0.,1.));
#153=DIRECTION('',(1.,0.,0.));
#154=DIRECTION('',(0.,0.,-1.));
#155=DIRECTION('',(1.,0.,0.));
#156=DIRECTION('',(0.,0.,-1.));
#157=DIRECTION('',(1.,0.,0.));
#158=DIRECTION('',(0.,1.,0.));
#159=DIRECTION('',(1.,0.,0.));
#160=DIRECTION('',(0.,0.,-1.));
#161=DIRECTION('',(-1.,0.,0.));
#162=DIRECTION('',(0.,0.,1.));
#163=CARTESIAN_POINT('',(0.,0.,0.));
#164=CARTESIAN_POINT('',(0.04,0.,3.9801020972289E-18));
#165=CARTESIAN_POINT('',(0.04,0.,3.9801020972289E-18));
#166=CARTESIAN_POINT('',(0.04,0.,-0.065));
#167=CARTESIAN_POINT('',(0.,0.,3.9801020972289E-18));
#168=CARTESIAN_POINT('',(0.,0.,-0.065));
#169=CARTESIAN_POINT('',(0.04,0.,0.));
#170=CARTESIAN_POINT('',(0.04,0.,2.1176654949776E-18));
#171=CARTESIAN_POINT('',(0.04,0.,-0.0415));
#172=CARTESIAN_POINT('',(0.,0.,0.));
#173=CARTESIAN_POINT('',(0.,0.,2.70953104311352E-18));
#174=CARTESIAN_POINT('',(0.,0.,0.04425));
#175=CARTESIAN_POINT('',(0.002,0.,2.70953104311352E-18));
#176=CARTESIAN_POINT('',(0.002,0.,2.70953104311352E-18));
#177=CARTESIAN_POINT('',(0.002,0.,0.04425));
#178=CARTESIAN_POINT('',(0.002,0.,0.));
#179=CARTESIAN_POINT('',(0.002,0.,2.29621274840129E-18));
#180=CARTESIAN_POINT('',(0.002,0.,0.0375));
#181=CARTESIAN_POINT('',(0.037,0.,2.1176654949776E-18));
#182=CARTESIAN_POINT('',(0.037,0.,2.1176654949776E-18));
#183=CARTESIAN_POINT('',(0.037,0.,-0.0415));
#184=CARTESIAN_POINT('',(0.037,0.,0.));
#185=CARTESIAN_POINT('',(0.037,0.,2.29621274840129E-18));
#186=CARTESIAN_POINT('',(0.037,0.,-0.0375));
#187=CARTESIAN_POINT('',(0.040002,0.,2.29621274840129E-18));
#188=MECHANICAL_DESIGN_GEOMETRIC_PRESENTATION_REPRESENTATION('',(#101),
#189);
#189=(
GEOMETRIC_REPRESENTATION_CONTEXT(3)
GLOBAL_UNCERTAINTY_ASSIGNED_CONTEXT((#190))
GLOBAL_UNIT_ASSIGNED_CONTEXT((#193,#192,#191))
REPRESENTATION_CONTEXT('Bride Diff\X\E9rentiel/Cardan',
'TOP_LEVEL_ASSEMBLY_PART')
);
#190=UNCERTAINTY_MEASURE_WITH_UNIT(LENGTH_MEASURE(5.E-6),#193,
'DISTANCE_ACCURACY_VALUE','Maximum Tolerance applied to model');
#191=(
NAMED_UNIT(*)
SI_UNIT($,.STERADIAN.)
SOLID_ANGLE_UNIT()
);
#192=(
NAMED_UNIT(*)
PLANE_ANGLE_UNIT()
SI_UNIT($,.RADIAN.)
);
#193=(
LENGTH_UNIT()
NAMED_UNIT(*)
SI_UNIT($,.METRE.)
);
#194=PRODUCT_DEFINITION_SHAPE('','',#195);
#195=PRODUCT_DEFINITION('','',#197,#196);
#196=PRODUCT_DEFINITION_CONTEXT('',#203,'design');
#197=PRODUCT_DEFINITION_FORMATION_WITH_SPECIFIED_SOURCE('','',#199,
 .NOT_KNOWN.);
#198=PRODUCT_RELATED_PRODUCT_CATEGORY('','',(#199));
#199=PRODUCT('Bride Diff\X\E9rentiel/Cardan',
'Bride Diff\X\E9rentiel/Cardan','Bride Diff\X\E9rentiel/Cardan',(#201));
#200=PRODUCT_CATEGORY('','');
#201=PRODUCT_CONTEXT('',#203,'mechanical');
#202=APPLICATION_PROTOCOL_DEFINITION('international standard',
'ap242_managed_model_based_3d_engineering',2011,#203);
#203=APPLICATION_CONTEXT('managed model based 3d engineering');
ENDSEC;
END-ISO-10303-21;
