ISO-10303-21;
HEADER;
/* Generated by software containing ST-Developer
 * from STEP Tools, Inc. (www.steptools.com) 
 */

FILE_DESCRIPTION(
/* description */ (''),
/* implementation_level */ '2;1');

FILE_NAME(
/* name */ 
'C:/Users/Philippe/Desktop/MOBICO/Client/Deegle/Devis/Laser-final/Fuse
e-AV-appui.step',
/* time_stamp */ '2022-08-17T09:20:17+02:00',
/* author */ (''),
/* organization */ (''),
/* preprocessor_version */ 'ST-DEVELOPER v19',
/* originating_system */ 'Autodesk Translation Framework v11.7.0.108',
/* authorisation */ '');

FILE_SCHEMA (('AUTOMOTIVE_DESIGN { 1 0 10303 214 3 1 1 }'));
ENDSEC;

DATA;
#10=MECHANICAL_DESIGN_GEOMETRIC_PRESENTATION_REPRESENTATION('',(#13),#257);
#11=SHAPE_REPRESENTATION_RELATIONSHIP('SRR','None',#264,#12);
#12=ADVANCED_BREP_SHAPE_REPRESENTATION('',(#14),#256);
#13=STYLED_ITEM('',(#273),#14);
#14=MANIFOLD_SOLID_BREP('Corps1',#149);
#15=FACE_BOUND('',#38,.T.);
#16=FACE_BOUND('',#40,.T.);
#17=PLANE('',#166);
#18=PLANE('',#167);
#19=PLANE('',#171);
#20=PLANE('',#172);
#21=PLANE('',#173);
#22=PLANE('',#174);
#23=FACE_OUTER_BOUND('',#31,.T.);
#24=FACE_OUTER_BOUND('',#32,.T.);
#25=FACE_OUTER_BOUND('',#33,.T.);
#26=FACE_OUTER_BOUND('',#34,.T.);
#27=FACE_OUTER_BOUND('',#35,.T.);
#28=FACE_OUTER_BOUND('',#36,.T.);
#29=FACE_OUTER_BOUND('',#37,.T.);
#30=FACE_OUTER_BOUND('',#39,.T.);
#31=EDGE_LOOP('',(#103,#104,#105,#106));
#32=EDGE_LOOP('',(#107,#108,#109,#110));
#33=EDGE_LOOP('',(#111,#112,#113,#114));
#34=EDGE_LOOP('',(#115,#116,#117,#118));
#35=EDGE_LOOP('',(#119,#120,#121,#122));
#36=EDGE_LOOP('',(#123,#124,#125,#126));
#37=EDGE_LOOP('',(#127,#128,#129,#130,#131));
#38=EDGE_LOOP('',(#132));
#39=EDGE_LOOP('',(#133,#134,#135,#136,#137));
#40=EDGE_LOOP('',(#138));
#41=LINE('',#220,#55);
#42=LINE('',#225,#56);
#43=LINE('',#227,#57);
#44=LINE('',#229,#58);
#45=LINE('',#230,#59);
#46=LINE('',#233,#60);
#47=LINE('',#235,#61);
#48=LINE('',#236,#62);
#49=LINE('',#242,#63);
#50=LINE('',#245,#64);
#51=LINE('',#247,#65);
#52=LINE('',#248,#66);
#53=LINE('',#250,#67);
#54=LINE('',#251,#68);
#55=VECTOR('',#181,5.);
#56=VECTOR('',#186,10.);
#57=VECTOR('',#187,10.);
#58=VECTOR('',#188,10.);
#59=VECTOR('',#189,10.);
#60=VECTOR('',#192,10.);
#61=VECTOR('',#193,10.);
#62=VECTOR('',#194,10.);
#63=VECTOR('',#201,10.);
#64=VECTOR('',#204,10.);
#65=VECTOR('',#205,10.);
#66=VECTOR('',#206,10.);
#67=VECTOR('',#209,10.);
#68=VECTOR('',#210,10.);
#69=CIRCLE('',#164,5.);
#70=CIRCLE('',#165,5.);
#71=CIRCLE('',#169,25.);
#72=CIRCLE('',#170,25.);
#73=VERTEX_POINT('',#217);
#74=VERTEX_POINT('',#219);
#75=VERTEX_POINT('',#223);
#76=VERTEX_POINT('',#224);
#77=VERTEX_POINT('',#226);
#78=VERTEX_POINT('',#228);
#79=VERTEX_POINT('',#232);
#80=VERTEX_POINT('',#234);
#81=VERTEX_POINT('',#238);
#82=VERTEX_POINT('',#240);
#83=VERTEX_POINT('',#244);
#84=VERTEX_POINT('',#246);
#85=EDGE_CURVE('',#73,#73,#69,.T.);
#86=EDGE_CURVE('',#73,#74,#41,.T.);
#87=EDGE_CURVE('',#74,#74,#70,.T.);
#88=EDGE_CURVE('',#75,#76,#42,.T.);
#89=EDGE_CURVE('',#75,#77,#43,.T.);
#90=EDGE_CURVE('',#78,#77,#44,.T.);
#91=EDGE_CURVE('',#76,#78,#45,.T.);
#92=EDGE_CURVE('',#76,#79,#46,.T.);
#93=EDGE_CURVE('',#80,#78,#47,.T.);
#94=EDGE_CURVE('',#79,#80,#48,.T.);
#95=EDGE_CURVE('',#79,#81,#71,.T.);
#96=EDGE_CURVE('',#82,#80,#72,.T.);
#97=EDGE_CURVE('',#81,#82,#49,.T.);
#98=EDGE_CURVE('',#81,#83,#50,.T.);
#99=EDGE_CURVE('',#84,#82,#51,.T.);
#100=EDGE_CURVE('',#83,#84,#52,.T.);
#101=EDGE_CURVE('',#75,#83,#53,.T.);
#102=EDGE_CURVE('',#77,#84,#54,.T.);
#103=ORIENTED_EDGE('',*,*,#85,.F.);
#104=ORIENTED_EDGE('',*,*,#86,.T.);
#105=ORIENTED_EDGE('',*,*,#87,.F.);
#106=ORIENTED_EDGE('',*,*,#86,.F.);
#107=ORIENTED_EDGE('',*,*,#88,.F.);
#108=ORIENTED_EDGE('',*,*,#89,.T.);
#109=ORIENTED_EDGE('',*,*,#90,.F.);
#110=ORIENTED_EDGE('',*,*,#91,.F.);
#111=ORIENTED_EDGE('',*,*,#92,.F.);
#112=ORIENTED_EDGE('',*,*,#91,.T.);
#113=ORIENTED_EDGE('',*,*,#93,.F.);
#114=ORIENTED_EDGE('',*,*,#94,.F.);
#115=ORIENTED_EDGE('',*,*,#95,.F.);
#116=ORIENTED_EDGE('',*,*,#94,.T.);
#117=ORIENTED_EDGE('',*,*,#96,.F.);
#118=ORIENTED_EDGE('',*,*,#97,.F.);
#119=ORIENTED_EDGE('',*,*,#98,.F.);
#120=ORIENTED_EDGE('',*,*,#97,.T.);
#121=ORIENTED_EDGE('',*,*,#99,.F.);
#122=ORIENTED_EDGE('',*,*,#100,.F.);
#123=ORIENTED_EDGE('',*,*,#101,.T.);
#124=ORIENTED_EDGE('',*,*,#100,.T.);
#125=ORIENTED_EDGE('',*,*,#102,.F.);
#126=ORIENTED_EDGE('',*,*,#89,.F.);
#127=ORIENTED_EDGE('',*,*,#101,.F.);
#128=ORIENTED_EDGE('',*,*,#88,.T.);
#129=ORIENTED_EDGE('',*,*,#92,.T.);
#130=ORIENTED_EDGE('',*,*,#95,.T.);
#131=ORIENTED_EDGE('',*,*,#98,.T.);
#132=ORIENTED_EDGE('',*,*,#87,.T.);
#133=ORIENTED_EDGE('',*,*,#102,.T.);
#134=ORIENTED_EDGE('',*,*,#99,.T.);
#135=ORIENTED_EDGE('',*,*,#96,.T.);
#136=ORIENTED_EDGE('',*,*,#93,.T.);
#137=ORIENTED_EDGE('',*,*,#90,.T.);
#138=ORIENTED_EDGE('',*,*,#85,.T.);
#139=CYLINDRICAL_SURFACE('',#163,5.);
#140=CYLINDRICAL_SURFACE('',#168,25.);
#141=ADVANCED_FACE('',(#23),#139,.F.);
#142=ADVANCED_FACE('',(#24),#17,.T.);
#143=ADVANCED_FACE('',(#25),#18,.T.);
#144=ADVANCED_FACE('',(#26),#140,.T.);
#145=ADVANCED_FACE('',(#27),#19,.T.);
#146=ADVANCED_FACE('',(#28),#20,.T.);
#147=ADVANCED_FACE('',(#29,#15),#21,.T.);
#148=ADVANCED_FACE('',(#30,#16),#22,.F.);
#149=CLOSED_SHELL('',(#141,#142,#143,#144,#145,#146,#147,#148));
#150=DERIVED_UNIT_ELEMENT(#152,1.);
#151=DERIVED_UNIT_ELEMENT(#259,-3.);
#152=(
MASS_UNIT()
NAMED_UNIT(*)
SI_UNIT(.KILO.,.GRAM.)
);
#153=DERIVED_UNIT((#150,#151));
#154=MEASURE_REPRESENTATION_ITEM('density measure',
POSITIVE_RATIO_MEASURE(7850.),#153);
#155=PROPERTY_DEFINITION_REPRESENTATION(#160,#157);
#156=PROPERTY_DEFINITION_REPRESENTATION(#161,#158);
#157=REPRESENTATION('material name',(#159),#256);
#158=REPRESENTATION('density',(#154),#256);
#159=DESCRIPTIVE_REPRESENTATION_ITEM('Acier','Acier');
#160=PROPERTY_DEFINITION('material property','material name',#266);
#161=PROPERTY_DEFINITION('material property','density of part',#266);
#162=AXIS2_PLACEMENT_3D('placement',#215,#175,#176);
#163=AXIS2_PLACEMENT_3D('',#216,#177,#178);
#164=AXIS2_PLACEMENT_3D('',#218,#179,#180);
#165=AXIS2_PLACEMENT_3D('',#221,#182,#183);
#166=AXIS2_PLACEMENT_3D('',#222,#184,#185);
#167=AXIS2_PLACEMENT_3D('',#231,#190,#191);
#168=AXIS2_PLACEMENT_3D('',#237,#195,#196);
#169=AXIS2_PLACEMENT_3D('',#239,#197,#198);
#170=AXIS2_PLACEMENT_3D('',#241,#199,#200);
#171=AXIS2_PLACEMENT_3D('',#243,#202,#203);
#172=AXIS2_PLACEMENT_3D('',#249,#207,#208);
#173=AXIS2_PLACEMENT_3D('',#252,#211,#212);
#174=AXIS2_PLACEMENT_3D('',#253,#213,#214);
#175=DIRECTION('axis',(0.,0.,1.));
#176=DIRECTION('refdir',(1.,0.,0.));
#177=DIRECTION('center_axis',(-1.,0.,1.06581410364015E-14));
#178=DIRECTION('ref_axis',(0.,1.,0.));
#179=DIRECTION('center_axis',(1.,0.,-9.78103097647426E-15));
#180=DIRECTION('ref_axis',(0.,1.,0.));
#181=DIRECTION('',(1.,0.,-1.06581410364015E-14));
#182=DIRECTION('center_axis',(-1.,0.,9.78103097647426E-15));
#183=DIRECTION('ref_axis',(0.,1.,0.));
#184=DIRECTION('center_axis',(0.,1.,0.));
#185=DIRECTION('ref_axis',(-9.78103097647426E-15,0.,-1.));
#186=DIRECTION('',(9.78103097647426E-15,0.,1.));
#187=DIRECTION('',(-1.,0.,1.06581410364015E-14));
#188=DIRECTION('',(-9.78103097647426E-15,0.,-1.));
#189=DIRECTION('',(-1.,0.,1.06581410364015E-14));
#190=DIRECTION('center_axis',(1.06581410364015E-14,0.,1.));
#191=DIRECTION('ref_axis',(0.,1.,0.));
#192=DIRECTION('',(0.,-1.,0.));
#193=DIRECTION('',(0.,1.,0.));
#194=DIRECTION('',(-1.,0.,1.06581410364015E-14));
#195=DIRECTION('center_axis',(-1.,0.,1.06581410364015E-14));
#196=DIRECTION('ref_axis',(1.06581410364015E-14,-7.7715611723761E-17,1.));
#197=DIRECTION('center_axis',(1.,0.,-9.78103097647426E-15));
#198=DIRECTION('ref_axis',(9.78103097647426E-15,-7.7715611723761E-17,1.));
#199=DIRECTION('center_axis',(-1.,0.,9.78103097647426E-15));
#200=DIRECTION('ref_axis',(9.78103097647426E-15,-7.7715611723761E-17,1.));
#201=DIRECTION('',(-1.,0.,1.06581410364015E-14));
#202=DIRECTION('center_axis',(2.36658271566304E-30,-1.,2.22044604925031E-16));
#203=DIRECTION('ref_axis',(9.78103097647426E-15,2.22044604925031E-16,1.));
#204=DIRECTION('',(-9.78103097647426E-15,-2.22044604925031E-16,-1.));
#205=DIRECTION('',(9.78103097647426E-15,2.22044604925031E-16,1.));
#206=DIRECTION('',(-1.,0.,1.06581410364015E-14));
#207=DIRECTION('center_axis',(-1.06581410364015E-14,8.46943717165676E-58,
-1.));
#208=DIRECTION('ref_axis',(-9.656071180348E-43,-1.,9.44463313260241E-57));
#209=DIRECTION('',(-9.656071180348E-43,-1.,9.44463313260241E-57));
#210=DIRECTION('',(-9.656071180348E-43,-1.,9.44463313260241E-57));
#211=DIRECTION('center_axis',(1.,0.,-9.78103097647426E-15));
#212=DIRECTION('ref_axis',(0.,1.,0.));
#213=DIRECTION('center_axis',(1.,0.,-9.78103097647426E-15));
#214=DIRECTION('ref_axis',(0.,1.,0.));
#215=CARTESIAN_POINT('',(0.,0.,0.));
#216=CARTESIAN_POINT('Origin',(-6.838311998149E-13,4.44089209850063E-15,
-64.25));
#217=CARTESIAN_POINT('',(-5.00000000000068,-5.,-64.25));
#218=CARTESIAN_POINT('Origin',(-5.00000000000068,4.44089209850063E-15,-64.25));
#219=CARTESIAN_POINT('',(-6.838311998149E-13,-5.,-64.25));
#220=CARTESIAN_POINT('',(-6.838311998149E-13,-5.,-64.25));
#221=CARTESIAN_POINT('Origin',(-6.838311998149E-13,4.44089209850063E-15,
-64.25));
#222=CARTESIAN_POINT('Origin',(-4.39305425403044E-13,20.,-39.25));
#223=CARTESIAN_POINT('',(-8.67225530623792E-13,20.,-83.));
#224=CARTESIAN_POINT('',(-4.39305425403044E-13,20.,-39.25));
#225=CARTESIAN_POINT('',(-8.79451819344385E-13,20.,-84.25));
#226=CARTESIAN_POINT('',(-5.00000000000087,20.,-83.));
#227=CARTESIAN_POINT('',(-8.67225530623792E-13,20.,-83.));
#228=CARTESIAN_POINT('',(-5.00000000000044,20.,-39.25));
#229=CARTESIAN_POINT('',(-5.00000000000088,20.,-84.25));
#230=CARTESIAN_POINT('',(-4.39305425403044E-13,20.,-39.25));
#231=CARTESIAN_POINT('Origin',(-4.39305425403044E-13,2.22044604925031E-15,
-39.25));
#232=CARTESIAN_POINT('',(-4.39305425403044E-13,2.4980018054066E-15,-39.25));
#233=CARTESIAN_POINT('',(-4.39305425403044E-13,20.,-39.25));
#234=CARTESIAN_POINT('',(-5.00000000000044,2.22044604925031E-15,-39.25));
#235=CARTESIAN_POINT('',(-5.00000000000044,20.,-39.25));
#236=CARTESIAN_POINT('',(-4.39305425403044E-13,2.4980018054066E-15,-39.25));
#237=CARTESIAN_POINT('Origin',(-6.838311998149E-13,4.44089209850063E-15,
-64.25));
#238=CARTESIAN_POINT('',(-6.838311998149E-13,-25.,-64.25));
#239=CARTESIAN_POINT('Origin',(-6.838311998149E-13,4.44089209850063E-15,
-64.25));
#240=CARTESIAN_POINT('',(-5.00000000000068,-25.,-64.25));
#241=CARTESIAN_POINT('Origin',(-5.00000000000068,4.44089209850063E-15,-64.25));
#242=CARTESIAN_POINT('',(-6.838311998149E-13,-25.,-64.25));
#243=CARTESIAN_POINT('Origin',(-8.67225530623792E-13,-25.,-83.));
#244=CARTESIAN_POINT('',(-8.67225530623792E-13,-25.,-83.));
#245=CARTESIAN_POINT('',(-6.838311998149E-13,-25.,-64.25));
#246=CARTESIAN_POINT('',(-5.00000000000087,-25.,-83.));
#247=CARTESIAN_POINT('',(-5.00000000000068,-25.,-64.25));
#248=CARTESIAN_POINT('',(-8.67225530623792E-13,-25.,-83.));
#249=CARTESIAN_POINT('Origin',(-8.67225530623792E-13,20.,-83.));
#250=CARTESIAN_POINT('',(-8.67225530623792E-13,20.,-83.));
#251=CARTESIAN_POINT('',(-5.00000000000087,20.,-83.));
#252=CARTESIAN_POINT('Origin',(-6.59378622373714E-13,-2.5,-61.75));
#253=CARTESIAN_POINT('Origin',(-5.00000000000066,-2.5,-61.75));
#254=UNCERTAINTY_MEASURE_WITH_UNIT(LENGTH_MEASURE(0.01),#258,
'DISTANCE_ACCURACY_VALUE',
'Maximum model space distance between geometric entities at asserted c
onnectivities');
#255=UNCERTAINTY_MEASURE_WITH_UNIT(LENGTH_MEASURE(0.01),#258,
'DISTANCE_ACCURACY_VALUE',
'Maximum model space distance between geometric entities at asserted c
onnectivities');
#256=(
GEOMETRIC_REPRESENTATION_CONTEXT(3)
GLOBAL_UNCERTAINTY_ASSIGNED_CONTEXT((#254))
GLOBAL_UNIT_ASSIGNED_CONTEXT((#258,#260,#261))
REPRESENTATION_CONTEXT('','3D')
);
#257=(
GEOMETRIC_REPRESENTATION_CONTEXT(3)
GLOBAL_UNCERTAINTY_ASSIGNED_CONTEXT((#255))
GLOBAL_UNIT_ASSIGNED_CONTEXT((#258,#260,#261))
REPRESENTATION_CONTEXT('','3D')
);
#258=(
LENGTH_UNIT()
NAMED_UNIT(*)
SI_UNIT(.MILLI.,.METRE.)
);
#259=(
LENGTH_UNIT()
NAMED_UNIT(*)
SI_UNIT($,.METRE.)
);
#260=(
NAMED_UNIT(*)
PLANE_ANGLE_UNIT()
SI_UNIT($,.RADIAN.)
);
#261=(
NAMED_UNIT(*)
SI_UNIT($,.STERADIAN.)
SOLID_ANGLE_UNIT()
);
#262=SHAPE_DEFINITION_REPRESENTATION(#263,#264);
#263=PRODUCT_DEFINITION_SHAPE('',$,#266);
#264=SHAPE_REPRESENTATION('',(#162),#256);
#265=PRODUCT_DEFINITION_CONTEXT('part definition',#270,'design');
#266=PRODUCT_DEFINITION('FusionComponent','FusionComponent',#267,#265);
#267=PRODUCT_DEFINITION_FORMATION('',$,#272);
#268=PRODUCT_RELATED_PRODUCT_CATEGORY('FusionComponent',
'FusionComponent',(#272));
#269=APPLICATION_PROTOCOL_DEFINITION('international standard',
'automotive_design',2009,#270);
#270=APPLICATION_CONTEXT(
'Core Data for Automotive Mechanical Design Process');
#271=PRODUCT_CONTEXT('part definition',#270,'mechanical');
#272=PRODUCT('FusionComponent','FusionComponent',$,(#271));
#273=PRESENTATION_STYLE_ASSIGNMENT((#274));
#274=SURFACE_STYLE_USAGE(.BOTH.,#275);
#275=SURFACE_SIDE_STYLE('',(#276));
#276=SURFACE_STYLE_FILL_AREA(#277);
#277=FILL_AREA_STYLE('Acier - Satin\X\E9',(#278));
#278=FILL_AREA_STYLE_COLOUR('Acier - Satin\X\E9',#279);
#279=COLOUR_RGB('Acier - Satin\X\E9',0.627450980392157,0.627450980392157,
0.627450980392157);
ENDSEC;
END-ISO-10303-21;
