ISO-10303-21;
HEADER;
/* Generated by software containing ST-Developer
 * from STEP Tools, Inc. (www.steptools.com) 
 */

FILE_DESCRIPTION(
/* description */ (''),
/* implementation_level */ '2;1');

FILE_NAME(
/* name */ 
'C:/Users/Philippe/Desktop/MOBICO/Client/Deegle/Devis/Laser-final/Fuse
e-AV-1.step',
/* time_stamp */ '2022-08-17T09:18:26+02:00',
/* author */ (''),
/* organization */ (''),
/* preprocessor_version */ 'ST-DEVELOPER v19',
/* originating_system */ 'Autodesk Translation Framework v11.7.0.108',
/* authorisation */ '');

FILE_SCHEMA (('AUTOMOTIVE_DESIGN { 1 0 10303 214 3 1 1 }'));
ENDSEC;

DATA;
#10=MECHANICAL_DESIGN_GEOMETRIC_PRESENTATION_REPRESENTATION('',(#13),#222);
#11=SHAPE_REPRESENTATION_RELATIONSHIP('SRR','None',#229,#12);
#12=ADVANCED_BREP_SHAPE_REPRESENTATION('',(#14),#221);
#13=STYLED_ITEM('',(#239),#14);
#14=MANIFOLD_SOLID_BREP('Corps1',#130);
#15=CYLINDRICAL_SURFACE('',#148,5.);
#16=FACE_BOUND('',#30,.T.);
#17=FACE_BOUND('',#34,.T.);
#18=CIRCLE('',#147,5.);
#19=CIRCLE('',#149,5.);
#20=FACE_OUTER_BOUND('',#27,.T.);
#21=FACE_OUTER_BOUND('',#28,.T.);
#22=FACE_OUTER_BOUND('',#29,.T.);
#23=FACE_OUTER_BOUND('',#31,.T.);
#24=FACE_OUTER_BOUND('',#32,.T.);
#25=FACE_OUTER_BOUND('',#33,.T.);
#26=FACE_OUTER_BOUND('',#35,.T.);
#27=EDGE_LOOP('',(#87,#88,#89,#90));
#28=EDGE_LOOP('',(#91,#92,#93,#94));
#29=EDGE_LOOP('',(#95,#96,#97,#98));
#30=EDGE_LOOP('',(#99));
#31=EDGE_LOOP('',(#100,#101,#102,#103));
#32=EDGE_LOOP('',(#104,#105,#106,#107));
#33=EDGE_LOOP('',(#108,#109,#110,#111));
#34=EDGE_LOOP('',(#112));
#35=EDGE_LOOP('',(#113,#114,#115,#116));
#36=LINE('',#190,#49);
#37=LINE('',#192,#50);
#38=LINE('',#194,#51);
#39=LINE('',#195,#52);
#40=LINE('',#198,#53);
#41=LINE('',#200,#54);
#42=LINE('',#201,#55);
#43=LINE('',#204,#56);
#44=LINE('',#205,#57);
#45=LINE('',#211,#58);
#46=LINE('',#214,#59);
#47=LINE('',#215,#60);
#48=LINE('',#217,#61);
#49=VECTOR('',#157,10.);
#50=VECTOR('',#158,10.);
#51=VECTOR('',#159,10.);
#52=VECTOR('',#160,10.);
#53=VECTOR('',#163,10.);
#54=VECTOR('',#164,10.);
#55=VECTOR('',#165,10.);
#56=VECTOR('',#168,10.);
#57=VECTOR('',#169,10.);
#58=VECTOR('',#176,5.);
#59=VECTOR('',#179,10.);
#60=VECTOR('',#180,10.);
#61=VECTOR('',#183,10.);
#62=VERTEX_POINT('',#188);
#63=VERTEX_POINT('',#189);
#64=VERTEX_POINT('',#191);
#65=VERTEX_POINT('',#193);
#66=VERTEX_POINT('',#197);
#67=VERTEX_POINT('',#199);
#68=VERTEX_POINT('',#203);
#69=VERTEX_POINT('',#206);
#70=VERTEX_POINT('',#209);
#71=VERTEX_POINT('',#213);
#72=EDGE_CURVE('',#62,#63,#36,.T.);
#73=EDGE_CURVE('',#62,#64,#37,.T.);
#74=EDGE_CURVE('',#64,#65,#38,.T.);
#75=EDGE_CURVE('',#63,#65,#39,.T.);
#76=EDGE_CURVE('',#63,#66,#40,.T.);
#77=EDGE_CURVE('',#65,#67,#41,.T.);
#78=EDGE_CURVE('',#66,#67,#42,.T.);
#79=EDGE_CURVE('',#68,#64,#43,.T.);
#80=EDGE_CURVE('',#67,#68,#44,.T.);
#81=EDGE_CURVE('',#69,#69,#18,.T.);
#82=EDGE_CURVE('',#70,#70,#19,.T.);
#83=EDGE_CURVE('',#70,#69,#45,.T.);
#84=EDGE_CURVE('',#71,#66,#46,.T.);
#85=EDGE_CURVE('',#68,#71,#47,.T.);
#86=EDGE_CURVE('',#71,#62,#48,.T.);
#87=ORIENTED_EDGE('',*,*,#72,.F.);
#88=ORIENTED_EDGE('',*,*,#73,.T.);
#89=ORIENTED_EDGE('',*,*,#74,.T.);
#90=ORIENTED_EDGE('',*,*,#75,.F.);
#91=ORIENTED_EDGE('',*,*,#76,.F.);
#92=ORIENTED_EDGE('',*,*,#75,.T.);
#93=ORIENTED_EDGE('',*,*,#77,.T.);
#94=ORIENTED_EDGE('',*,*,#78,.F.);
#95=ORIENTED_EDGE('',*,*,#79,.F.);
#96=ORIENTED_EDGE('',*,*,#80,.F.);
#97=ORIENTED_EDGE('',*,*,#77,.F.);
#98=ORIENTED_EDGE('',*,*,#74,.F.);
#99=ORIENTED_EDGE('',*,*,#81,.T.);
#100=ORIENTED_EDGE('',*,*,#82,.F.);
#101=ORIENTED_EDGE('',*,*,#83,.T.);
#102=ORIENTED_EDGE('',*,*,#81,.F.);
#103=ORIENTED_EDGE('',*,*,#83,.F.);
#104=ORIENTED_EDGE('',*,*,#84,.T.);
#105=ORIENTED_EDGE('',*,*,#78,.T.);
#106=ORIENTED_EDGE('',*,*,#80,.T.);
#107=ORIENTED_EDGE('',*,*,#85,.T.);
#108=ORIENTED_EDGE('',*,*,#76,.T.);
#109=ORIENTED_EDGE('',*,*,#84,.F.);
#110=ORIENTED_EDGE('',*,*,#86,.T.);
#111=ORIENTED_EDGE('',*,*,#72,.T.);
#112=ORIENTED_EDGE('',*,*,#82,.T.);
#113=ORIENTED_EDGE('',*,*,#86,.F.);
#114=ORIENTED_EDGE('',*,*,#85,.F.);
#115=ORIENTED_EDGE('',*,*,#79,.T.);
#116=ORIENTED_EDGE('',*,*,#73,.F.);
#117=PLANE('',#144);
#118=PLANE('',#145);
#119=PLANE('',#146);
#120=PLANE('',#150);
#121=PLANE('',#151);
#122=PLANE('',#152);
#123=ADVANCED_FACE('',(#20),#117,.T.);
#124=ADVANCED_FACE('',(#21),#118,.T.);
#125=ADVANCED_FACE('',(#22,#16),#119,.T.);
#126=ADVANCED_FACE('',(#23),#15,.F.);
#127=ADVANCED_FACE('',(#24),#120,.T.);
#128=ADVANCED_FACE('',(#25,#17),#121,.T.);
#129=ADVANCED_FACE('',(#26),#122,.T.);
#130=CLOSED_SHELL('',(#123,#124,#125,#126,#127,#128,#129));
#131=DERIVED_UNIT_ELEMENT(#133,1.);
#132=DERIVED_UNIT_ELEMENT(#224,-3.);
#133=(
MASS_UNIT()
NAMED_UNIT(*)
SI_UNIT(.KILO.,.GRAM.)
);
#134=DERIVED_UNIT((#131,#132));
#135=MEASURE_REPRESENTATION_ITEM('density measure',
POSITIVE_RATIO_MEASURE(7850.),#134);
#136=PROPERTY_DEFINITION_REPRESENTATION(#141,#138);
#137=PROPERTY_DEFINITION_REPRESENTATION(#142,#139);
#138=REPRESENTATION('material name',(#140),#221);
#139=REPRESENTATION('density',(#135),#221);
#140=DESCRIPTIVE_REPRESENTATION_ITEM('Acier','Acier');
#141=PROPERTY_DEFINITION('material property','material name',#231);
#142=PROPERTY_DEFINITION('material property','density of part',#231);
#143=AXIS2_PLACEMENT_3D('placement',#186,#153,#154);
#144=AXIS2_PLACEMENT_3D('',#187,#155,#156);
#145=AXIS2_PLACEMENT_3D('',#196,#161,#162);
#146=AXIS2_PLACEMENT_3D('',#202,#166,#167);
#147=AXIS2_PLACEMENT_3D('',#207,#170,#171);
#148=AXIS2_PLACEMENT_3D('',#208,#172,#173);
#149=AXIS2_PLACEMENT_3D('',#210,#174,#175);
#150=AXIS2_PLACEMENT_3D('',#212,#177,#178);
#151=AXIS2_PLACEMENT_3D('',#216,#181,#182);
#152=AXIS2_PLACEMENT_3D('',#218,#184,#185);
#153=DIRECTION('axis',(0.,0.,1.));
#154=DIRECTION('refdir',(1.,0.,0.));
#155=DIRECTION('center_axis',(0.,1.,0.));
#156=DIRECTION('ref_axis',(0.,0.,1.));
#157=DIRECTION('',(1.,0.,0.));
#158=DIRECTION('',(0.,0.,1.));
#159=DIRECTION('',(1.,0.,5.9211894646675E-16));
#160=DIRECTION('',(0.,0.,1.));
#161=DIRECTION('center_axis',(1.,0.,-1.59511994498345E-14));
#162=DIRECTION('ref_axis',(-1.59511994498345E-14,0.,-1.));
#163=DIRECTION('',(0.,-1.,0.));
#164=DIRECTION('',(0.,-1.,0.));
#165=DIRECTION('',(1.59511994498345E-14,0.,1.));
#166=DIRECTION('center_axis',(-5.9211894646675E-16,0.,1.));
#167=DIRECTION('ref_axis',(1.,0.,5.9211894646675E-16));
#168=DIRECTION('',(0.,1.,0.));
#169=DIRECTION('',(-1.,0.,-5.9211894646675E-16));
#170=DIRECTION('center_axis',(5.9211894646675E-16,0.,-1.));
#171=DIRECTION('ref_axis',(1.,0.,0.));
#172=DIRECTION('center_axis',(0.,0.,1.));
#173=DIRECTION('ref_axis',(1.,0.,0.));
#174=DIRECTION('center_axis',(0.,0.,1.));
#175=DIRECTION('ref_axis',(1.,0.,0.));
#176=DIRECTION('',(0.,0.,1.));
#177=DIRECTION('center_axis',(0.,-1.,0.));
#178=DIRECTION('ref_axis',(0.,0.,-1.));
#179=DIRECTION('',(1.,0.,0.));
#180=DIRECTION('',(0.,0.,-1.));
#181=DIRECTION('center_axis',(0.,0.,-1.));
#182=DIRECTION('ref_axis',(-1.,0.,0.));
#183=DIRECTION('',(0.,1.,0.));
#184=DIRECTION('center_axis',(-1.,0.,0.));
#185=DIRECTION('ref_axis',(0.,0.,1.));
#186=CARTESIAN_POINT('',(0.,0.,0.));
#187=CARTESIAN_POINT('Origin',(-15.,25.,-3.5527136788005E-14));
#188=CARTESIAN_POINT('',(-30.,25.,83.));
#189=CARTESIAN_POINT('',(-8.63988316798462E-14,25.,83.));
#190=CARTESIAN_POINT('',(-7.50000000000002,25.,83.));
#191=CARTESIAN_POINT('',(-30.,25.,88.));
#192=CARTESIAN_POINT('',(-30.,25.,-88.0000000000001));
#193=CARTESIAN_POINT('',(-6.64283443067385E-15,25.,88.));
#194=CARTESIAN_POINT('',(-30.,25.,88.));
#195=CARTESIAN_POINT('',(-8.63988316798462E-14,25.,-83.));
#196=CARTESIAN_POINT('Origin',(-6.64283443067385E-15,0.,88.));
#197=CARTESIAN_POINT('',(-8.63988316798462E-14,-25.,83.));
#198=CARTESIAN_POINT('',(-8.63988316798462E-14,0.,83.));
#199=CARTESIAN_POINT('',(-6.64283443067385E-15,-25.,88.));
#200=CARTESIAN_POINT('',(-6.64283443067385E-15,0.,88.));
#201=CARTESIAN_POINT('',(-6.64283443067385E-15,-25.,88.));
#202=CARTESIAN_POINT('Origin',(-30.,0.,88.));
#203=CARTESIAN_POINT('',(-30.,-25.,88.));
#204=CARTESIAN_POINT('',(-30.,0.,88.));
#205=CARTESIAN_POINT('',(-30.,-25.,88.));
#206=CARTESIAN_POINT('',(-20.,6.12323399573677E-16,88.));
#207=CARTESIAN_POINT('Origin',(-15.,0.,88.));
#208=CARTESIAN_POINT('Origin',(-15.,0.,0.));
#209=CARTESIAN_POINT('',(-20.,-6.12323399573677E-16,83.));
#210=CARTESIAN_POINT('Origin',(-15.,0.,83.));
#211=CARTESIAN_POINT('',(-20.,-6.12323399573677E-16,0.));
#212=CARTESIAN_POINT('Origin',(-15.,-25.,-3.5527136788005E-14));
#213=CARTESIAN_POINT('',(-30.,-25.,83.));
#214=CARTESIAN_POINT('',(-20.,-25.,83.));
#215=CARTESIAN_POINT('',(-30.,-25.,-88.0000000000001));
#216=CARTESIAN_POINT('Origin',(-8.63988316798462E-14,0.,83.));
#217=CARTESIAN_POINT('',(-30.,0.,83.));
#218=CARTESIAN_POINT('Origin',(-30.,0.,-88.0000000000001));
#219=UNCERTAINTY_MEASURE_WITH_UNIT(LENGTH_MEASURE(0.01),#223,
'DISTANCE_ACCURACY_VALUE',
'Maximum model space distance between geometric entities at asserted c
onnectivities');
#220=UNCERTAINTY_MEASURE_WITH_UNIT(LENGTH_MEASURE(0.01),#223,
'DISTANCE_ACCURACY_VALUE',
'Maximum model space distance between geometric entities at asserted c
onnectivities');
#221=(
GEOMETRIC_REPRESENTATION_CONTEXT(3)
GLOBAL_UNCERTAINTY_ASSIGNED_CONTEXT((#219))
GLOBAL_UNIT_ASSIGNED_CONTEXT((#223,#225,#226))
REPRESENTATION_CONTEXT('','3D')
);
#222=(
GEOMETRIC_REPRESENTATION_CONTEXT(3)
GLOBAL_UNCERTAINTY_ASSIGNED_CONTEXT((#220))
GLOBAL_UNIT_ASSIGNED_CONTEXT((#223,#225,#226))
REPRESENTATION_CONTEXT('','3D')
);
#223=(
LENGTH_UNIT()
NAMED_UNIT(*)
SI_UNIT(.MILLI.,.METRE.)
);
#224=(
LENGTH_UNIT()
NAMED_UNIT(*)
SI_UNIT($,.METRE.)
);
#225=(
NAMED_UNIT(*)
PLANE_ANGLE_UNIT()
SI_UNIT($,.RADIAN.)
);
#226=(
NAMED_UNIT(*)
SI_UNIT($,.STERADIAN.)
SOLID_ANGLE_UNIT()
);
#227=SHAPE_DEFINITION_REPRESENTATION(#228,#229);
#228=PRODUCT_DEFINITION_SHAPE('',$,#231);
#229=SHAPE_REPRESENTATION('',(#143),#221);
#230=PRODUCT_DEFINITION_CONTEXT('part definition',#235,'design');
#231=PRODUCT_DEFINITION('FusionComponent','FusionComponent',#232,#230);
#232=PRODUCT_DEFINITION_FORMATION('',$,#237);
#233=PRODUCT_RELATED_PRODUCT_CATEGORY('FusionComponent',
'FusionComponent',(#237));
#234=APPLICATION_PROTOCOL_DEFINITION('international standard',
'automotive_design',2009,#235);
#235=APPLICATION_CONTEXT(
'Core Data for Automotive Mechanical Design Process');
#236=PRODUCT_CONTEXT('part definition',#235,'mechanical');
#237=PRODUCT('FusionComponent','FusionComponent',$,(#236));
#238=PRESENTATION_STYLE_ASSIGNMENT((#240));
#239=PRESENTATION_STYLE_ASSIGNMENT((#241));
#240=SURFACE_STYLE_USAGE(.BOTH.,#242);
#241=SURFACE_STYLE_USAGE(.BOTH.,#243);
#242=SURFACE_SIDE_STYLE('',(#244));
#243=SURFACE_SIDE_STYLE('',(#245));
#244=SURFACE_STYLE_FILL_AREA(#246);
#245=SURFACE_STYLE_FILL_AREA(#247);
#246=FILL_AREA_STYLE('Acier - Satin\X\E9',(#248));
#247=FILL_AREA_STYLE('Aluminium - Satin\X\E9',(#249));
#248=FILL_AREA_STYLE_COLOUR('Acier - Satin\X\E9',#250);
#249=FILL_AREA_STYLE_COLOUR('Aluminium - Satin\X\E9',#251);
#250=COLOUR_RGB('Acier - Satin\X\E9',0.627450980392157,0.627450980392157,
0.627450980392157);
#251=COLOUR_RGB('Aluminium - Satin\X\E9',0.96078431372549,0.96078431372549,
0.964705882352941);
ENDSEC;
END-ISO-10303-21;
