ISO-10303-21;
HEADER;
FILE_DESCRIPTION (( 'STEP AP214' ),
    '1' );
FILE_NAME ('5-Pied.STEP',
    '2022-08-15T18:48:23',
    ( '' ),
    ( '' ),
    'SwSTEP 2.0',
    'SolidWorks 2019',
    '' );
FILE_SCHEMA (( 'AUTOMOTIVE_DESIGN' ));
ENDSEC;

DATA;
#1 = AXIS2_PLACEMENT_3D ( 'NONE', #119, #244, #15 ) ;
#2 = DIRECTION ( 'NONE',  ( -0.000000000000000000, -1.000000000000000000, -0.000000000000000000 ) ) ;
#3 = EDGE_LOOP ( 'NONE', ( #81, #170 ) ) ;
#4 = EDGE_CURVE ( 'NONE', #289, #7, #108, .T. ) ;
#5 = SURFACE_STYLE_USAGE ( .BOTH. , #323 ) ;
#6 = ORIENTED_EDGE ( 'NONE', *, *, #133, .F. ) ;
#7 = VERTEX_POINT ( 'NONE', #82 ) ;
#8 =( GEOMETRIC_REPRESENTATION_CONTEXT ( 3 ) GLOBAL_UNCERTAINTY_ASSIGNED_CONTEXT ( ( #348 ) ) GLOBAL_UNIT_ASSIGNED_CONTEXT ( ( #97, #249, #127 ) ) REPRESENTATION_CONTEXT ( 'NONE', 'WORKASPACE' ) );
#9 = DIRECTION ( 'NONE',  ( 0.000000000000000000, -0.5150380749100542666, -0.8571673007021122226 ) ) ;
#10 = LINE ( 'NONE', #195, #164 ) ;
#11 = CARTESIAN_POINT ( 'NONE',  ( 0.000000000000000000, 125.0000000000000000, 3.399999999999997691 ) ) ;
#12 =( GEOMETRIC_REPRESENTATION_CONTEXT ( 3 ) GLOBAL_UNCERTAINTY_ASSIGNED_CONTEXT ( ( #130 ) ) GLOBAL_UNIT_ASSIGNED_CONTEXT ( ( #406, #70, #176 ) ) REPRESENTATION_CONTEXT ( 'NONE', 'WORKASPACE' ) );
#13 = CARTESIAN_POINT ( 'NONE',  ( 0.000000000000000000, 125.0000000000000000, 0.000000000000000000 ) ) ;
#14 = PRODUCT_DEFINITION ( 'UNKNOWN', '', #304, #214 ) ;
#15 = DIRECTION ( 'NONE',  ( 0.000000000000000000, 0.000000000000000000, 1.000000000000000000 ) ) ;
#16 = CYLINDRICAL_SURFACE ( 'NONE', #54, 3.399999999999996358 ) ;
#17 = FILL_AREA_STYLE_COLOUR ( '', #181 ) ;
#18 = EDGE_CURVE ( 'NONE', #350, #266, #332, .T. ) ;
#19 = FILL_AREA_STYLE ('',( #246 ) ) ;
#20 = AXIS2_PLACEMENT_3D ( 'NONE', #58, #37, #139 ) ;
#21 = ORIENTED_EDGE ( 'NONE', *, *, #74, .T. ) ;
#22 = CIRCLE ( 'NONE', #99, 3.399999999999997691 ) ;
#23 = FACE_OUTER_BOUND ( 'NONE', #327, .T. ) ;
#24 = FACE_OUTER_BOUND ( 'NONE', #296, .T. ) ;
#25 = SURFACE_STYLE_FILL_AREA ( #281 ) ;
#26 = PRESENTATION_STYLE_ASSIGNMENT (( #55 ) ) ;
#27 = CYLINDRICAL_SURFACE ( 'NONE', #161, 6.000000000000007994 ) ;
#28 = DIRECTION ( 'NONE',  ( -0.000000000000000000, -1.000000000000000000, -0.000000000000000000 ) ) ;
#29 = PRESENTATION_LAYER_ASSIGNMENT (  '', '', ( #347 ) ) ;
#30 = PRODUCT_RELATED_PRODUCT_CATEGORY ( 'part', '', ( #49 ) ) ;
#31 = FACE_OUTER_BOUND ( 'NONE', #3, .T. ) ;
#32 = MECHANICAL_DESIGN_GEOMETRIC_PRESENTATION_REPRESENTATION (  '', ( #231 ), #40 ) ;
#33 = CARTESIAN_POINT ( 'NONE',  ( -5.658605980096893216E-15, 23.10301216659643586, 0.000000000000000000 ) ) ;
#34 = ORIENTED_EDGE ( 'NONE', *, *, #272, .F. ) ;
#35 = DIRECTION ( 'NONE',  ( -0.000000000000000000, -1.000000000000000000, -0.000000000000000000 ) ) ;
#36 = ORIENTED_EDGE ( 'NONE', *, *, #261, .T. ) ;
#37 = DIRECTION ( 'NONE',  ( -0.000000000000000000, -1.000000000000000000, -0.000000000000000000 ) ) ;
#38 = EDGE_LOOP ( 'NONE', ( #408, #375, #142, #292 ) ) ;
#39 = MECHANICAL_DESIGN_GEOMETRIC_PRESENTATION_REPRESENTATION (  '', ( #347 ), #89 ) ;
#40 =( GEOMETRIC_REPRESENTATION_CONTEXT ( 3 ) GLOBAL_UNCERTAINTY_ASSIGNED_CONTEXT ( ( #125 ) ) GLOBAL_UNIT_ASSIGNED_CONTEXT ( ( #242, #50, #157 ) ) REPRESENTATION_CONTEXT ( 'NONE', 'WORKASPACE' ) );
#41 = VERTEX_POINT ( 'NONE', #391 ) ;
#42 = ADVANCED_BREP_SHAPE_REPRESENTATION ( '5-Pied', ( #86, #217 ), #293 ) ;
#43 = ORIENTED_EDGE ( 'NONE', *, *, #312, .T. ) ;
#44 = CARTESIAN_POINT ( 'NONE',  ( 0.000000000000000000, 125.0000000000000000, 0.000000000000000000 ) ) ;
#45 = ADVANCED_FACE ( 'NONE', ( #179 ), #63, .F. ) ;
#46 = FACE_OUTER_BOUND ( 'NONE', #77, .T. ) ;
#47 = UNCERTAINTY_MEASURE_WITH_UNIT (LENGTH_MEASURE( 1.000000000000000082E-05 ), #376, 'distance_accuracy_value', 'NONE');
#48 = LINE ( 'NONE', #271, #286 ) ;
#49 = PRODUCT ( '5-Pied', '5-Pied', '', ( #207 ) ) ;
#50 =( NAMED_UNIT ( * ) PLANE_ANGLE_UNIT ( ) SI_UNIT ( $, .RADIAN. ) );
#51 = EDGE_CURVE ( 'NONE', #41, #265, #212, .T. ) ;
#52 = AXIS2_PLACEMENT_3D ( 'NONE', #378, #196, #317 ) ;
#53 = CARTESIAN_POINT ( 'NONE',  ( 0.000000000000000000, 102.7500000000000142, 0.000000000000000000 ) ) ;
#54 = AXIS2_PLACEMENT_3D ( 'NONE', #159, #275, #250 ) ;
#55 = SURFACE_STYLE_USAGE ( .BOTH. , #137 ) ;
#56 = ADVANCED_FACE ( 'NONE', ( #46 ), #221, .F. ) ;
#57 = FACE_BOUND ( 'NONE', #167, .T. ) ;
#58 = CARTESIAN_POINT ( 'NONE',  ( 0.000000000000000000, 0.000000000000000000, 0.000000000000000000 ) ) ;
#59 = ORIENTED_EDGE ( 'NONE', *, *, #51, .T. ) ;
#60 = DIRECTION ( 'NONE',  ( 0.000000000000000000, 0.000000000000000000, -1.000000000000000000 ) ) ;
#61 =( LENGTH_UNIT ( ) NAMED_UNIT ( * ) SI_UNIT ( .MILLI., .METRE. ) );
#62 = VERTEX_POINT ( 'NONE', #11 ) ;
#63 = CONICAL_SURFACE ( 'NONE', #218, 3.399999999999995026, 1.029744258676651425 ) ;
#64 = CARTESIAN_POINT ( 'NONE',  ( 0.000000000000000000, 0.000000000000000000, 0.000000000000000000 ) ) ;
#65 = SURFACE_STYLE_FILL_AREA ( #19 ) ;
#66 = DIRECTION ( 'NONE',  ( -0.000000000000000000, -1.000000000000000000, -0.000000000000000000 ) ) ;
#67 = SURFACE_STYLE_FILL_AREA ( #189 ) ;
#68 =( NAMED_UNIT ( * ) SI_UNIT ( $, .STERADIAN. ) SOLID_ANGLE_UNIT ( ) );
#69 = COLOUR_RGB ( '',0.5019607843137254832, 0.5019607843137254832, 1.000000000000000000 ) ;
#70 =( NAMED_UNIT ( * ) PLANE_ANGLE_UNIT ( ) SI_UNIT ( $, .RADIAN. ) );
#71 = MECHANICAL_DESIGN_GEOMETRIC_PRESENTATION_REPRESENTATION (  '', ( #182 ), #252 ) ;
#72 = CARTESIAN_POINT ( 'NONE',  ( 4.286263797015714901E-16, -2.908536147974965291E-15, 3.499999999999982681 ) ) ;
#73 = EDGE_LOOP ( 'NONE', ( #384, #185, #146 ) ) ;
#74 = EDGE_CURVE ( 'NONE', #236, #208, #48, .T. ) ;
#75 = DIRECTION ( 'NONE',  ( -0.000000000000000000, -1.000000000000000000, -0.000000000000000000 ) ) ;
#76 = PRESENTATION_STYLE_ASSIGNMENT (( #232 ) ) ;
#77 = EDGE_LOOP ( 'NONE', ( #6, #351, #297 ) ) ;
#78 = AXIS2_PLACEMENT_3D ( 'NONE', #251, #305, #397 ) ;
#79 = ORIENTED_EDGE ( 'NONE', *, *, #268, .T. ) ;
#80 = FILL_AREA_STYLE_COLOUR ( '', #172 ) ;
#81 = ORIENTED_EDGE ( 'NONE', *, *, #253, .T. ) ;
#82 = CARTESIAN_POINT ( 'NONE',  ( 0.000000000000000000, 125.0000000000000000, -6.000000000000000000 ) ) ;
#83 = VECTOR ( 'NONE', #387, 1000.000000000000000 ) ;
#84 = CARTESIAN_POINT ( 'NONE',  ( 0.000000000000000000, 102.7500000000000142, 3.399999999999995026 ) ) ;
#85 = APPLICATION_CONTEXT ( 'automotive_design' ) ;
#86 = MANIFOLD_SOLID_BREP ( 'Trou taraudé M81', #229 ) ;
#87 = DIRECTION ( 'NONE',  ( 0.000000000000000000, 0.000000000000000000, -1.000000000000000000 ) ) ;
#88 = DIRECTION ( 'NONE',  ( -0.000000000000000000, -1.000000000000000000, -0.000000000000000000 ) ) ;
#89 =( GEOMETRIC_REPRESENTATION_CONTEXT ( 3 ) GLOBAL_UNCERTAINTY_ASSIGNED_CONTEXT ( ( #47 ) ) GLOBAL_UNIT_ASSIGNED_CONTEXT ( ( #376, #288, #68 ) ) REPRESENTATION_CONTEXT ( 'NONE', 'WORKASPACE' ) );
#90 = CARTESIAN_POINT ( 'NONE',  ( 0.000000000000000000, -4.898587196589409870E-16, -6.000000000000015987 ) ) ;
#91 = AXIS2_PLACEMENT_3D ( 'NONE', #345, #343, #367 ) ;
#92 = PLANE ( 'NONE',  #91 ) ;
#93 =( LENGTH_UNIT ( ) NAMED_UNIT ( * ) SI_UNIT ( .MILLI., .METRE. ) );
#94 = DIRECTION ( 'NONE',  ( 0.000000000000000000, 0.000000000000000000, -1.000000000000000000 ) ) ;
#95 = VERTEX_POINT ( 'NONE', #303 ) ;
#96 = CARTESIAN_POINT ( 'NONE',  ( 0.000000000000000000, 102.7500000000000142, 0.000000000000000000 ) ) ;
#97 =( LENGTH_UNIT ( ) NAMED_UNIT ( * ) SI_UNIT ( .MILLI., .METRE. ) );
#98 = AXIS2_PLACEMENT_3D ( 'NONE', #64, #313, #344 ) ;
#99 = AXIS2_PLACEMENT_3D ( 'NONE', #44, #365, #273 ) ;
#100 = EDGE_CURVE ( 'NONE', #62, #208, #22, .T. ) ;
#101 =( NAMED_UNIT ( * ) PLANE_ANGLE_UNIT ( ) SI_UNIT ( $, .RADIAN. ) );
#102 = CARTESIAN_POINT ( 'NONE',  ( 4.286263797015711450E-16, 20.99999999999998934, 3.499999999999979572 ) ) ;
#103 = SURFACE_SIDE_STYLE ('',( #25 ) ) ;
#104 = DIRECTION ( 'NONE',  ( -0.000000000000000000, -1.000000000000000000, -0.000000000000000000 ) ) ;
#105 = ORIENTED_EDGE ( 'NONE', *, *, #374, .T. ) ;
#106 = CIRCLE ( 'NONE', #227, 6.000000000000015987 ) ;
#107 = APPLICATION_PROTOCOL_DEFINITION ( 'draft international standard', 'automotive_design', 1998, #335 ) ;
#108 = CIRCLE ( 'NONE', #383, 6.000000000000000000 ) ;
#109 = COLOUR_RGB ( '',0.6980392156862744724, 0.6980392156862744724, 0.6980392156862744724 ) ;
#110 = EDGE_LOOP ( 'NONE', ( #339, #238 ) ) ;
#111 = LINE ( 'NONE', #319, #324 ) ;
#112 = ORIENTED_EDGE ( 'NONE', *, *, #121, .F. ) ;
#113 = VERTEX_POINT ( 'NONE', #90 ) ;
#114 = PRESENTATION_LAYER_ASSIGNMENT (  '', '', ( #284 ) ) ;
#115 = SHAPE_DEFINITION_REPRESENTATION ( #278, #42 ) ;
#116 = AXIS2_PLACEMENT_3D ( 'NONE', #132, #28, #392 ) ;
#117 = EDGE_CURVE ( 'NONE', #350, #236, #269, .T. ) ;
#118 = ORIENTED_EDGE ( 'NONE', *, *, #253, .F. ) ;
#119 = CARTESIAN_POINT ( 'NONE',  ( 0.000000000000000000, 102.7500000000000142, 0.000000000000000000 ) ) ;
#120 = DIRECTION ( 'NONE',  ( -0.000000000000000000, -1.000000000000000000, -0.000000000000000000 ) ) ;
#121 = EDGE_CURVE ( 'NONE', #7, #289, #309, .T. ) ;
#122 = STYLED_ITEM ( 'NONE', ( #385 ), #42 ) ;
#123 = STYLED_ITEM ( 'NONE', ( #26 ), #216 ) ;
#124 = PRESENTATION_STYLE_ASSIGNMENT (( #158 ) ) ;
#125 = UNCERTAINTY_MEASURE_WITH_UNIT (LENGTH_MEASURE( 1.000000000000000082E-05 ), #242, 'distance_accuracy_value', 'NONE');
#126 = DIRECTION ( 'NONE',  ( -0.000000000000000000, -1.000000000000000000, -0.000000000000000000 ) ) ;
#127 =( NAMED_UNIT ( * ) SI_UNIT ( $, .STERADIAN. ) SOLID_ANGLE_UNIT ( ) );
#128 = EDGE_CURVE ( 'NONE', #177, #230, #144, .T. ) ;
#129 = AXIS2_PLACEMENT_3D ( 'NONE', #299, #302, #215 ) ;
#130 = UNCERTAINTY_MEASURE_WITH_UNIT (LENGTH_MEASURE( 1.000000000000000082E-05 ), #406, 'distance_accuracy_value', 'NONE');
#131 = ORIENTED_EDGE ( 'NONE', *, *, #18, .F. ) ;
#132 = CARTESIAN_POINT ( 'NONE',  ( 0.000000000000000000, 0.000000000000000000, 0.000000000000000000 ) ) ;
#133 = EDGE_CURVE ( 'NONE', #263, #177, #183, .T. ) ;
#134 =( NAMED_UNIT ( * ) PLANE_ANGLE_UNIT ( ) SI_UNIT ( $, .RADIAN. ) );
#135 = AXIS2_PLACEMENT_3D ( 'NONE', #285, #254, #94 ) ;
#136 = DIRECTION ( 'NONE',  ( -0.000000000000000000, 1.000000000000000000, -0.000000000000000000 ) ) ;
#137 = SURFACE_SIDE_STYLE ('',( #67 ) ) ;
#138 = DIRECTION ( 'NONE',  ( -0.000000000000000000, 1.000000000000000000, -0.000000000000000000 ) ) ;
#139 = DIRECTION ( 'NONE',  ( 0.000000000000000000, 0.000000000000000000, -1.000000000000000000 ) ) ;
#140 = EDGE_CURVE ( 'NONE', #236, #266, #190, .T. ) ;
#141 = ORIENTED_EDGE ( 'NONE', *, *, #140, .T. ) ;
#142 = ORIENTED_EDGE ( 'NONE', *, *, #178, .T. ) ;
#143 = AXIS2_PLACEMENT_3D ( 'NONE', #337, #66, #368 ) ;
#144 = CIRCLE ( 'NONE', #361, 3.499999999999979572 ) ;
#145 = CARTESIAN_POINT ( 'NONE',  ( 0.000000000000000000, 102.7500000000000142, 3.399999999999995026 ) ) ;
#146 = ORIENTED_EDGE ( 'NONE', *, *, #128, .T. ) ;
#147 = ORIENTED_EDGE ( 'NONE', *, *, #374, .F. ) ;
#148 = ORIENTED_EDGE ( 'NONE', *, *, #312, .F. ) ;
#149 = CIRCLE ( 'NONE', #143, 3.499999999999982236 ) ;
#150 = MECHANICAL_DESIGN_GEOMETRIC_PRESENTATION_REPRESENTATION (  '', ( #284 ), #329 ) ;
#151 = COLOUR_RGB ( '',0.5019607843137254832, 0.5019607843137254832, 1.000000000000000000 ) ;
#152 = DIRECTION ( 'NONE',  ( -0.000000000000000000, 1.000000000000000000, -0.000000000000000000 ) ) ;
#153 = CARTESIAN_POINT ( 'NONE',  ( 4.163799117100995136E-16, 102.7500000000000142, -3.399999999999995026 ) ) ;
#154 = DIRECTION ( 'NONE',  ( -0.000000000000000000, 1.000000000000000000, -0.000000000000000000 ) ) ;
#155 = AXIS2_PLACEMENT_3D ( 'NONE', #166, #262, #200 ) ;
#156 = AXIS2_PLACEMENT_3D ( 'NONE', #13, #88, #210 ) ;
#157 =( NAMED_UNIT ( * ) SI_UNIT ( $, .STERADIAN. ) SOLID_ANGLE_UNIT ( ) );
#158 = SURFACE_STYLE_USAGE ( .BOTH. , #390 ) ;
#159 = CARTESIAN_POINT ( 'NONE',  ( 0.000000000000000000, 125.0000000000000000, 0.000000000000000000 ) ) ;
#160 =( NAMED_UNIT ( * ) PLANE_ANGLE_UNIT ( ) SI_UNIT ( $, .RADIAN. ) );
#161 = AXIS2_PLACEMENT_3D ( 'NONE', #283, #248, #165 ) ;
#162 =( NAMED_UNIT ( * ) SI_UNIT ( $, .STERADIAN. ) SOLID_ANGLE_UNIT ( ) );
#163 = FACE_OUTER_BOUND ( 'NONE', #174, .T. ) ;
#164 = VECTOR ( 'NONE', #369, 1000.000000000000000 ) ;
#165 = DIRECTION ( 'NONE',  ( 0.000000000000000000, 0.000000000000000000, -1.000000000000000000 ) ) ;
#166 = CARTESIAN_POINT ( 'NONE',  ( 0.000000000000000000, 125.0000000000000000, 0.000000000000000000 ) ) ;
#167 = EDGE_LOOP ( 'NONE', ( #235, #298 ) ) ;
#168 = APPLICATION_PROTOCOL_DEFINITION ( 'draft international standard', 'automotive_design', 1998, #85 ) ;
#169 = FACE_OUTER_BOUND ( 'NONE', #276, .T. ) ;
#170 = ORIENTED_EDGE ( 'NONE', *, *, #198, .T. ) ;
#171 = ORIENTED_EDGE ( 'NONE', *, *, #74, .F. ) ;
#172 = COLOUR_RGB ( '',0.6431372549019607199, 0.5882352941176470784, 0.8941176470588234615 ) ;
#173 = SURFACE_STYLE_FILL_AREA ( #264 ) ;
#174 = EDGE_LOOP ( 'NONE', ( #112, #205 ) ) ;
#175 = ADVANCED_FACE ( 'NONE', ( #270 ), #295, .F. ) ;
#176 =( NAMED_UNIT ( * ) SI_UNIT ( $, .STERADIAN. ) SOLID_ANGLE_UNIT ( ) );
#177 = VERTEX_POINT ( 'NONE', #301 ) ;
#178 = EDGE_CURVE ( 'NONE', #7, #113, #10, .T. ) ;
#179 = FACE_OUTER_BOUND ( 'NONE', #353, .T. ) ;
#180 = SURFACE_STYLE_FILL_AREA ( #213 ) ;
#181 = COLOUR_RGB ( '',0.6980392156862744724, 0.6980392156862744724, 0.6980392156862744724 ) ;
#182 = STYLED_ITEM ( 'NONE', ( #307 ), #225 ) ;
#183 = LINE ( 'NONE', #386, #237 ) ;
#184 = FACE_OUTER_BOUND ( 'NONE', #354, .T. ) ;
#185 = ORIENTED_EDGE ( 'NONE', *, *, #133, .T. ) ;
#186 = DIRECTION ( 'NONE',  ( 0.000000000000000000, 0.000000000000000000, 1.000000000000000000 ) ) ;
#187 = CIRCLE ( 'NONE', #393, 3.399999999999995026 ) ;
#188 = EDGE_CURVE ( 'NONE', #263, #230, #395, .T. ) ;
#189 = FILL_AREA_STYLE ('',( #401 ) ) ;
#190 = CIRCLE ( 'NONE', #1, 3.399999999999995026 ) ;
#191 = ORIENTED_EDGE ( 'NONE', *, *, #272, .T. ) ;
#192 = PLANE ( 'NONE',  #340 ) ;
#193 = CYLINDRICAL_SURFACE ( 'NONE', #20, 3.499999999999980904 ) ;
#194 = PRESENTATION_STYLE_ASSIGNMENT (( #346 ) ) ;
#195 = CARTESIAN_POINT ( 'NONE',  ( 0.000000000000000000, 0.000000000000000000, -6.000000000000007994 ) ) ;
#196 = DIRECTION ( 'NONE',  ( -0.000000000000000000, 1.000000000000000000, -0.000000000000000000 ) ) ;
#197 = PRESENTATION_LAYER_ASSIGNMENT (  '', '', ( #123 ) ) ;
#198 = EDGE_CURVE ( 'NONE', #95, #113, #241, .T. ) ;
#199 = DIRECTION ( 'NONE',  ( 0.000000000000000000, 0.000000000000000000, 1.000000000000000000 ) ) ;
#200 = DIRECTION ( 'NONE',  ( 0.000000000000000000, 0.000000000000000000, 1.000000000000000000 ) ) ;
#201 = ORIENTED_EDGE ( 'NONE', *, *, #306, .T. ) ;
#202 = CYLINDRICAL_SURFACE ( 'NONE', #52, 3.399999999999996358 ) ;
#203 = ORIENTED_EDGE ( 'NONE', *, *, #380, .T. ) ;
#204 = ADVANCED_FACE ( 'NONE', ( #311 ), #314, .T. ) ;
#205 = ORIENTED_EDGE ( 'NONE', *, *, #4, .F. ) ;
#206 = EDGE_LOOP ( 'NONE', ( #356, #256, #43 ) ) ;
#207 = PRODUCT_CONTEXT ( 'NONE', #85, 'mechanical' ) ;
#208 = VERTEX_POINT ( 'NONE', #223 ) ;
#209 = ADVANCED_FACE ( 'NONE', ( #372, #163 ), #92, .T. ) ;
#210 = DIRECTION ( 'NONE',  ( 0.000000000000000000, 0.000000000000000000, -1.000000000000000000 ) ) ;
#211 = CIRCLE ( 'NONE', #155, 3.399999999999997691 ) ;
#212 = CIRCLE ( 'NONE', #325, 3.499999999999982236 ) ;
#213 = FILL_AREA_STYLE ('',( #240 ) ) ;
#214 = PRODUCT_DEFINITION_CONTEXT ( 'detailed design', #335, 'design' ) ;
#215 = DIRECTION ( 'NONE',  ( 0.000000000000000000, 0.000000000000000000, -1.000000000000000000 ) ) ;
#216 = ADVANCED_FACE ( 'NONE', ( #184 ), #16, .F. ) ;
#217 = AXIS2_PLACEMENT_3D ( 'NONE', #355, #199, #318 ) ;
#218 = AXIS2_PLACEMENT_3D ( 'NONE', #53, #154, #389 ) ;
#219 = LINE ( 'NONE', #373, #382 ) ;
#220 = MECHANICAL_DESIGN_GEOMETRIC_PRESENTATION_REPRESENTATION (  '', ( #122 ), #12 ) ;
#221 = CONICAL_SURFACE ( 'NONE', #129, 3.499999999999979572, 1.029744258676654312 ) ;
#222 =( NAMED_UNIT ( * ) SI_UNIT ( $, .STERADIAN. ) SOLID_ANGLE_UNIT ( ) );
#223 = CARTESIAN_POINT ( 'NONE',  ( 4.163799117100998094E-16, 125.0000000000000000, -3.399999999999997691 ) ) ;
#224 = LINE ( 'NONE', #310, #359 ) ;
#225 = ADVANCED_FACE ( 'NONE', ( #24 ), #193, .F. ) ;
#226 = DIRECTION ( 'NONE',  ( -0.000000000000000000, -1.000000000000000000, -0.000000000000000000 ) ) ;
#227 = AXIS2_PLACEMENT_3D ( 'NONE', #321, #104, #294 ) ;
#228 = FILL_AREA_STYLE ('',( #234 ) ) ;
#229 = CLOSED_SHELL ( 'NONE', ( #243, #45, #274, #56, #342, #209, #204, #334, #291, #225, #175, #216 ) ) ;
#230 = VERTEX_POINT ( 'NONE', #102 ) ;
#231 = STYLED_ITEM ( 'NONE', ( #124 ), #86 ) ;
#232 = SURFACE_STYLE_USAGE ( .BOTH. , #352 ) ;
#233 = CARTESIAN_POINT ( 'NONE',  ( 0.000000000000000000, 125.0000000000000000, 0.000000000000000000 ) ) ;
#234 = FILL_AREA_STYLE_COLOUR ( '', #69 ) ;
#235 = ORIENTED_EDGE ( 'NONE', *, *, #51, .F. ) ;
#236 = VERTEX_POINT ( 'NONE', #290 ) ;
#237 = VECTOR ( 'NONE', #9, 1000.000000000000000 ) ;
#238 = ORIENTED_EDGE ( 'NONE', *, *, #268, .F. ) ;
#239 = DIRECTION ( 'NONE',  ( 0.000000000000000000, 0.000000000000000000, 1.000000000000000000 ) ) ;
#240 = FILL_AREA_STYLE_COLOUR ( '', #259 ) ;
#241 = CIRCLE ( 'NONE', #135, 6.000000000000015987 ) ;
#242 =( LENGTH_UNIT ( ) NAMED_UNIT ( * ) SI_UNIT ( .MILLI., .METRE. ) );
#243 = ADVANCED_FACE ( 'NONE', ( #407 ), #202, .F. ) ;
#244 = DIRECTION ( 'NONE',  ( -0.000000000000000000, 1.000000000000000000, -0.000000000000000000 ) ) ;
#245 = PRESENTATION_LAYER_ASSIGNMENT (  '', '', ( #182 ) ) ;
#246 = FILL_AREA_STYLE_COLOUR ( '', #109 ) ;
#247 = ORIENTED_EDGE ( 'NONE', *, *, #117, .T. ) ;
#248 = DIRECTION ( 'NONE',  ( -0.000000000000000000, -1.000000000000000000, -0.000000000000000000 ) ) ;
#249 =( NAMED_UNIT ( * ) PLANE_ANGLE_UNIT ( ) SI_UNIT ( $, .RADIAN. ) );
#250 = DIRECTION ( 'NONE',  ( 0.000000000000000000, 0.000000000000000000, 1.000000000000000000 ) ) ;
#251 = CARTESIAN_POINT ( 'NONE',  ( 0.000000000000000000, 20.99999999999998934, 0.000000000000000000 ) ) ;
#252 =( GEOMETRIC_REPRESENTATION_CONTEXT ( 3 ) GLOBAL_UNCERTAINTY_ASSIGNED_CONTEXT ( ( #363 ) ) GLOBAL_UNIT_ASSIGNED_CONTEXT ( ( #61, #134, #282 ) ) REPRESENTATION_CONTEXT ( 'NONE', 'WORKASPACE' ) );
#253 = EDGE_CURVE ( 'NONE', #113, #95, #106, .T. ) ;
#254 = DIRECTION ( 'NONE',  ( -0.000000000000000000, -1.000000000000000000, -0.000000000000000000 ) ) ;
#255 = DIRECTION ( 'NONE',  ( 0.000000000000000000, 0.000000000000000000, -1.000000000000000000 ) ) ;
#256 = ORIENTED_EDGE ( 'NONE', *, *, #18, .T. ) ;
#257 = VECTOR ( 'NONE', #2, 1000.000000000000000 ) ;
#258 = LINE ( 'NONE', #349, #257 ) ;
#259 = COLOUR_RGB ( '',0.6431372549019607199, 0.5882352941176470784, 0.8941176470588234615 ) ;
#260 = ORIENTED_EDGE ( 'NONE', *, *, #100, .T. ) ;
#261 = EDGE_CURVE ( 'NONE', #289, #95, #258, .T. ) ;
#262 = DIRECTION ( 'NONE',  ( -0.000000000000000000, 1.000000000000000000, -0.000000000000000000 ) ) ;
#263 = VERTEX_POINT ( 'NONE', #33 ) ;
#264 = FILL_AREA_STYLE ('',( #80 ) ) ;
#265 = VERTEX_POINT ( 'NONE', #72 ) ;
#266 = VERTEX_POINT ( 'NONE', #145 ) ;
#267 = AXIS2_PLACEMENT_3D ( 'NONE', #308, #226, #255 ) ;
#268 = EDGE_CURVE ( 'NONE', #208, #62, #211, .T. ) ;
#269 = LINE ( 'NONE', #153, #83 ) ;
#270 = FACE_OUTER_BOUND ( 'NONE', #206, .T. ) ;
#271 = CARTESIAN_POINT ( 'NONE',  ( 4.163799117100996615E-16, 125.0000000000000000, -3.399999999999996358 ) ) ;
#272 = EDGE_CURVE ( 'NONE', #177, #41, #111, .T. ) ;
#273 = DIRECTION ( 'NONE',  ( 0.000000000000000000, 0.000000000000000000, 1.000000000000000000 ) ) ;
#274 = ADVANCED_FACE ( 'NONE', ( #169 ), #402, .F. ) ;
#275 = DIRECTION ( 'NONE',  ( -0.000000000000000000, 1.000000000000000000, -0.000000000000000000 ) ) ;
#276 = EDGE_LOOP ( 'NONE', ( #320, #105, #201, #34 ) ) ;
#277 = DIRECTION ( 'NONE',  ( 0.000000000000000000, -1.000000000000000000, -0.000000000000000000 ) ) ;
#278 = PRODUCT_DEFINITION_SHAPE ( 'NONE', 'NONE',  #14 ) ;
#279 = SURFACE_STYLE_USAGE ( .BOTH. , #336 ) ;
#280 = UNCERTAINTY_MEASURE_WITH_UNIT (LENGTH_MEASURE( 1.000000000000000082E-05 ), #93, 'distance_accuracy_value', 'NONE');
#281 = FILL_AREA_STYLE ('',( #17 ) ) ;
#282 =( NAMED_UNIT ( * ) SI_UNIT ( $, .STERADIAN. ) SOLID_ANGLE_UNIT ( ) );
#283 = CARTESIAN_POINT ( 'NONE',  ( 0.000000000000000000, 0.000000000000000000, 0.000000000000000000 ) ) ;
#284 = STYLED_ITEM ( 'NONE', ( #194 ), #274 ) ;
#285 = CARTESIAN_POINT ( 'NONE',  ( 0.000000000000000000, -4.898587196589409870E-16, 0.000000000000000000 ) ) ;
#286 = VECTOR ( 'NONE', #152, 1000.000000000000000 ) ;
#287 = CARTESIAN_POINT ( 'NONE',  ( -5.951233087786762878E-15, 100.7070738953062943, 0.000000000000000000 ) ) ;
#288 =( NAMED_UNIT ( * ) PLANE_ANGLE_UNIT ( ) SI_UNIT ( $, .RADIAN. ) );
#289 = VERTEX_POINT ( 'NONE', #316 ) ;
#290 = CARTESIAN_POINT ( 'NONE',  ( 4.163799117100995136E-16, 102.7500000000000142, -3.399999999999995026 ) ) ;
#291 = ADVANCED_FACE ( 'NONE', ( #394 ), #315, .F. ) ;
#292 = ORIENTED_EDGE ( 'NONE', *, *, #198, .F. ) ;
#293 =( GEOMETRIC_REPRESENTATION_CONTEXT ( 3 ) GLOBAL_UNCERTAINTY_ASSIGNED_CONTEXT ( ( #403 ) ) GLOBAL_UNIT_ASSIGNED_CONTEXT ( ( #398, #101, #222 ) ) REPRESENTATION_CONTEXT ( 'NONE', 'WORKASPACE' ) );
#294 = DIRECTION ( 'NONE',  ( 0.000000000000000000, 0.000000000000000000, -1.000000000000000000 ) ) ;
#295 = CONICAL_SURFACE ( 'NONE', #300, 3.399999999999995026, 1.029744258676651425 ) ;
#296 = EDGE_LOOP ( 'NONE', ( #147, #377, #191, #59 ) ) ;
#297 = ORIENTED_EDGE ( 'NONE', *, *, #358, .T. ) ;
#298 = ORIENTED_EDGE ( 'NONE', *, *, #306, .F. ) ;
#299 = CARTESIAN_POINT ( 'NONE',  ( 0.000000000000000000, 20.99999999999998934, 0.000000000000000000 ) ) ;
#300 = AXIS2_PLACEMENT_3D ( 'NONE', #364, #330, #239 ) ;
#301 = CARTESIAN_POINT ( 'NONE',  ( 0.000000000000000000, 20.99999999999998934, -3.499999999999979572 ) ) ;
#302 = DIRECTION ( 'NONE',  ( -0.000000000000000000, -1.000000000000000000, -0.000000000000000000 ) ) ;
#303 = CARTESIAN_POINT ( 'NONE',  ( 7.347880794884138472E-16, -4.898587196589409870E-16, 6.000000000000015987 ) ) ;
#304 = PRODUCT_DEFINITION_FORMATION_WITH_SPECIFIED_SOURCE ( 'ANY', '', #49, .NOT_KNOWN. ) ;
#305 = DIRECTION ( 'NONE',  ( -0.000000000000000000, -1.000000000000000000, -0.000000000000000000 ) ) ;
#306 = EDGE_CURVE ( 'NONE', #265, #41, #149, .T. ) ;
#307 = PRESENTATION_STYLE_ASSIGNMENT (( #279 ) ) ;
#308 = CARTESIAN_POINT ( 'NONE',  ( 0.000000000000000000, 20.99999999999998934, 0.000000000000000000 ) ) ;
#309 = CIRCLE ( 'NONE', #156, 6.000000000000000000 ) ;
#310 = CARTESIAN_POINT ( 'NONE',  ( 0.000000000000000000, 125.0000000000000000, 3.399999999999996358 ) ) ;
#311 = FACE_OUTER_BOUND ( 'NONE', #38, .T. ) ;
#312 = EDGE_CURVE ( 'NONE', #266, #236, #187, .T. ) ;
#313 = DIRECTION ( 'NONE',  ( -0.000000000000000000, -1.000000000000000000, -0.000000000000000000 ) ) ;
#314 = CYLINDRICAL_SURFACE ( 'NONE', #116, 6.000000000000007994 ) ;
#315 = CONICAL_SURFACE ( 'NONE', #267, 3.499999999999979572, 1.029744258676654312 ) ;
#316 = CARTESIAN_POINT ( 'NONE',  ( 7.347880794884124666E-16, 125.0000000000000000, 6.000000000000000000 ) ) ;
#317 = DIRECTION ( 'NONE',  ( 0.000000000000000000, 0.000000000000000000, 1.000000000000000000 ) ) ;
#318 = DIRECTION ( 'NONE',  ( 1.000000000000000000, 0.000000000000000000, 0.000000000000000000 ) ) ;
#319 = CARTESIAN_POINT ( 'NONE',  ( 0.000000000000000000, 0.000000000000000000, -3.499999999999980904 ) ) ;
#320 = ORIENTED_EDGE ( 'NONE', *, *, #358, .F. ) ;
#321 = CARTESIAN_POINT ( 'NONE',  ( 0.000000000000000000, -4.898587196589409870E-16, 0.000000000000000000 ) ) ;
#322 = DIRECTION ( 'NONE',  ( 0.000000000000000000, 0.000000000000000000, -1.000000000000000000 ) ) ;
#323 = SURFACE_SIDE_STYLE ('',( #173 ) ) ;
#324 = VECTOR ( 'NONE', #35, 1000.000000000000000 ) ;
#325 = AXIS2_PLACEMENT_3D ( 'NONE', #362, #126, #87 ) ;
#326 = ORIENTED_EDGE ( 'NONE', *, *, #140, .F. ) ;
#327 = EDGE_LOOP ( 'NONE', ( #379, #36, #118, #405 ) ) ;
#328 = CARTESIAN_POINT ( 'NONE',  ( 0.000000000000000000, 20.99999999999998934, 0.000000000000000000 ) ) ;
#329 =( GEOMETRIC_REPRESENTATION_CONTEXT ( 3 ) GLOBAL_UNCERTAINTY_ASSIGNED_CONTEXT ( ( #280 ) ) GLOBAL_UNIT_ASSIGNED_CONTEXT ( ( #93, #160, #162 ) ) REPRESENTATION_CONTEXT ( 'NONE', 'WORKASPACE' ) );
#330 = DIRECTION ( 'NONE',  ( -0.000000000000000000, 1.000000000000000000, -0.000000000000000000 ) ) ;
#331 = PRESENTATION_LAYER_ASSIGNMENT (  '', '', ( #231 ) ) ;
#332 = LINE ( 'NONE', #84, #366 ) ;
#333 = CARTESIAN_POINT ( 'NONE',  ( 4.286263797015711450E-16, 20.99999999999998934, 3.499999999999979572 ) ) ;
#334 = ADVANCED_FACE ( 'NONE', ( #57, #31 ), #192, .T. ) ;
#335 = APPLICATION_CONTEXT ( 'automotive_design' ) ;
#336 = SURFACE_SIDE_STYLE ('',( #65 ) ) ;
#337 = CARTESIAN_POINT ( 'NONE',  ( 0.000000000000000000, -2.908536147974965291E-15, 0.000000000000000000 ) ) ;
#338 = DIRECTION ( 'NONE',  ( 1.049727191138618572E-16, -0.5150380749100542666, 0.8571673007021122226 ) ) ;
#339 = ORIENTED_EDGE ( 'NONE', *, *, #100, .F. ) ;
#340 = AXIS2_PLACEMENT_3D ( 'NONE', #370, #277, #60 ) ;
#341 = DIRECTION ( 'NONE',  ( -0.000000000000000000, -1.000000000000000000, -0.000000000000000000 ) ) ;
#342 = ADVANCED_FACE ( 'NONE', ( #23 ), #27, .T. ) ;
#343 = DIRECTION ( 'NONE',  ( 0.000000000000000000, 1.000000000000000000, 0.000000000000000000 ) ) ;
#344 = DIRECTION ( 'NONE',  ( 0.000000000000000000, 0.000000000000000000, -1.000000000000000000 ) ) ;
#345 = CARTESIAN_POINT ( 'NONE',  ( 0.000000000000000000, 125.0000000000000000, 0.000000000000000000 ) ) ;
#346 = SURFACE_STYLE_USAGE ( .BOTH. , #103 ) ;
#347 = STYLED_ITEM ( 'NONE', ( #76 ), #243 ) ;
#348 = UNCERTAINTY_MEASURE_WITH_UNIT (LENGTH_MEASURE( 1.000000000000000082E-05 ), #97, 'distance_accuracy_value', 'NONE');
#349 = CARTESIAN_POINT ( 'NONE',  ( 7.347880794884128611E-16, 0.000000000000000000, 6.000000000000007994 ) ) ;
#350 = VERTEX_POINT ( 'NONE', #287 ) ;
#351 = ORIENTED_EDGE ( 'NONE', *, *, #188, .T. ) ;
#352 = SURFACE_SIDE_STYLE ('',( #404 ) ) ;
#353 = EDGE_LOOP ( 'NONE', ( #131, #247, #141 ) ) ;
#354 = EDGE_LOOP ( 'NONE', ( #171, #148, #203, #260 ) ) ;
#355 = CARTESIAN_POINT ( 'NONE',  ( 0.000000000000000000, 0.000000000000000000, 0.000000000000000000 ) ) ;
#356 = ORIENTED_EDGE ( 'NONE', *, *, #117, .F. ) ;
#357 = DIRECTION ( 'NONE',  ( 0.000000000000000000, 0.000000000000000000, -1.000000000000000000 ) ) ;
#358 = EDGE_CURVE ( 'NONE', #230, #177, #399, .T. ) ;
#359 = VECTOR ( 'NONE', #136, 1000.000000000000000 ) ;
#360 = DIRECTION ( 'NONE',  ( 0.000000000000000000, 0.5150380749100568201, 0.8571673007021107793 ) ) ;
#361 = AXIS2_PLACEMENT_3D ( 'NONE', #328, #120, #357 ) ;
#362 = CARTESIAN_POINT ( 'NONE',  ( 0.000000000000000000, -2.908536147974965291E-15, 0.000000000000000000 ) ) ;
#363 = UNCERTAINTY_MEASURE_WITH_UNIT (LENGTH_MEASURE( 1.000000000000000082E-05 ), #61, 'distance_accuracy_value', 'NONE');
#364 = CARTESIAN_POINT ( 'NONE',  ( 0.000000000000000000, 102.7500000000000142, 0.000000000000000000 ) ) ;
#365 = DIRECTION ( 'NONE',  ( -0.000000000000000000, 1.000000000000000000, -0.000000000000000000 ) ) ;
#366 = VECTOR ( 'NONE', #360, 1000.000000000000000 ) ;
#367 = DIRECTION ( 'NONE',  ( 0.000000000000000000, -0.000000000000000000, 1.000000000000000000 ) ) ;
#368 = DIRECTION ( 'NONE',  ( 0.000000000000000000, 0.000000000000000000, -1.000000000000000000 ) ) ;
#369 = DIRECTION ( 'NONE',  ( -0.000000000000000000, -1.000000000000000000, -0.000000000000000000 ) ) ;
#370 = CARTESIAN_POINT ( 'NONE',  ( 6.000000000000015987, -2.449293598294704935E-16, 0.000000000000000000 ) ) ;
#371 = MECHANICAL_DESIGN_GEOMETRIC_PRESENTATION_REPRESENTATION (  '', ( #123 ), #8 ) ;
#372 = FACE_BOUND ( 'NONE', #110, .T. ) ;
#373 = CARTESIAN_POINT ( 'NONE',  ( 4.286263797015712929E-16, 0.000000000000000000, 3.499999999999980904 ) ) ;
#374 = EDGE_CURVE ( 'NONE', #230, #265, #219, .T. ) ;
#375 = ORIENTED_EDGE ( 'NONE', *, *, #4, .T. ) ;
#376 =( LENGTH_UNIT ( ) NAMED_UNIT ( * ) SI_UNIT ( .MILLI., .METRE. ) );
#377 = ORIENTED_EDGE ( 'NONE', *, *, #128, .F. ) ;
#378 = CARTESIAN_POINT ( 'NONE',  ( 0.000000000000000000, 125.0000000000000000, 0.000000000000000000 ) ) ;
#379 = ORIENTED_EDGE ( 'NONE', *, *, #121, .T. ) ;
#380 = EDGE_CURVE ( 'NONE', #266, #62, #224, .T. ) ;
#381 = EDGE_LOOP ( 'NONE', ( #326, #21, #79, #396 ) ) ;
#382 = VECTOR ( 'NONE', #341, 1000.000000000000000 ) ;
#383 = AXIS2_PLACEMENT_3D ( 'NONE', #233, #75, #322 ) ;
#384 = ORIENTED_EDGE ( 'NONE', *, *, #188, .F. ) ;
#385 = PRESENTATION_STYLE_ASSIGNMENT (( #5 ) ) ;
#386 = CARTESIAN_POINT ( 'NONE',  ( 0.000000000000000000, 20.99999999999998934, -3.499999999999979572 ) ) ;
#387 = DIRECTION ( 'NONE',  ( 1.049727191138616723E-16, 0.5150380749100568201, -0.8571673007021107793 ) ) ;
#388 = PRESENTATION_LAYER_ASSIGNMENT (  '', '', ( #122 ) ) ;
#389 = DIRECTION ( 'NONE',  ( 0.000000000000000000, 0.000000000000000000, 1.000000000000000000 ) ) ;
#390 = SURFACE_SIDE_STYLE ('',( #180 ) ) ;
#391 = CARTESIAN_POINT ( 'NONE',  ( 0.000000000000000000, -2.908536147974965291E-15, -3.499999999999982236 ) ) ;
#392 = DIRECTION ( 'NONE',  ( 0.000000000000000000, 0.000000000000000000, -1.000000000000000000 ) ) ;
#393 = AXIS2_PLACEMENT_3D ( 'NONE', #96, #138, #186 ) ;
#394 = FACE_OUTER_BOUND ( 'NONE', #73, .T. ) ;
#395 = LINE ( 'NONE', #333, #400 ) ;
#396 = ORIENTED_EDGE ( 'NONE', *, *, #380, .F. ) ;
#397 = DIRECTION ( 'NONE',  ( 0.000000000000000000, 0.000000000000000000, -1.000000000000000000 ) ) ;
#398 =( LENGTH_UNIT ( ) NAMED_UNIT ( * ) SI_UNIT ( .MILLI., .METRE. ) );
#399 = CIRCLE ( 'NONE', #78, 3.499999999999979572 ) ;
#400 = VECTOR ( 'NONE', #338, 1000.000000000000000 ) ;
#401 = FILL_AREA_STYLE_COLOUR ( '', #151 ) ;
#402 = CYLINDRICAL_SURFACE ( 'NONE', #98, 3.499999999999980904 ) ;
#403 = UNCERTAINTY_MEASURE_WITH_UNIT (LENGTH_MEASURE( 1.000000000000000082E-05 ), #398, 'distance_accuracy_value', 'NONE');
#404 = SURFACE_STYLE_FILL_AREA ( #228 ) ;
#405 = ORIENTED_EDGE ( 'NONE', *, *, #178, .F. ) ;
#406 =( LENGTH_UNIT ( ) NAMED_UNIT ( * ) SI_UNIT ( .MILLI., .METRE. ) );
#407 = FACE_OUTER_BOUND ( 'NONE', #381, .T. ) ;
#408 = ORIENTED_EDGE ( 'NONE', *, *, #261, .F. ) ;
ENDSEC;
END-ISO-10303-21;
