ISO-10303-21;
HEADER;
/* Generated by software containing ST-Developer
 * from STEP Tools, Inc. (www.steptools.com) 
 */
/* OPTION: using custom renumber hook */

FILE_DESCRIPTION(
/* description */ ('STEP AP242',
'CAx-IF Rec.Pracs.---Representation and Presentation of Product Manufa
cturing Information (PMI)---4.0---2014-10-13',
'CAx-IF Rec.Pracs.---3D Tessellated Geometry---0.4---2014-09-14','2;1'),

/* implementation_level */ '2;1');

FILE_NAME(
/* name */ '6303ba75a25cda24294940aa',
/* time_stamp */ '2022-08-22T17:18:45+00:00',
/* author */ (''),
/* organization */ (''),
/* preprocessor_version */ 'ST-DEVELOPER v18.102',
/* originating_system */ '  ',
/* authorisation */ '  ');

FILE_SCHEMA (('AP242_MANAGED_MODEL_BASED_3D_ENGINEERING_MIM_LF { 1 0 10303 442 1 1 4 }'));
ENDSEC;

DATA;
#10=SHAPE_REPRESENTATION_RELATIONSHIP('','',#361,#11);
#11=ADVANCED_BREP_SHAPE_REPRESENTATION('',(#359),#629);
#12=VERTEX_LOOP('',#138);
#13=VERTEX_LOOP('',#140);
#14=VERTEX_LOOP('',#142);
#15=VERTEX_LOOP('',#144);
#16=VERTEX_LOOP('',#146);
#17=VERTEX_LOOP('',#148);
#18=VERTEX_LOOP('',#150);
#19=VERTEX_LOOP('',#152);
#20=VERTEX_LOOP('',#154);
#21=VERTEX_LOOP('',#156);
#22=CONICAL_SURFACE('',#389,0.0044,1.02974425867665);
#23=CONICAL_SURFACE('',#392,0.0044,1.02974425867665);
#24=CONICAL_SURFACE('',#395,0.0044,1.02974425867665);
#25=CONICAL_SURFACE('',#398,0.0044,1.02974425867665);
#26=CONICAL_SURFACE('',#401,0.0054,1.02974425867665);
#27=CONICAL_SURFACE('',#404,0.0054,1.02974425867665);
#28=CONICAL_SURFACE('',#407,0.0054,1.02974425867665);
#29=CONICAL_SURFACE('',#410,0.0054,1.02974425867665);
#30=CONICAL_SURFACE('',#413,0.0054,1.02974425867665);
#31=CONICAL_SURFACE('',#416,0.0054,1.02974425867665);
#32=PLANE('',#369);
#33=PLANE('',#377);
#34=PLANE('',#383);
#35=PLANE('',#386);
#36=ORIENTED_EDGE('',*,*,#92,.F.);
#37=ORIENTED_EDGE('',*,*,#93,.F.);
#38=ORIENTED_EDGE('',*,*,#94,.F.);
#39=ORIENTED_EDGE('',*,*,#95,.T.);
#40=ORIENTED_EDGE('',*,*,#96,.T.);
#41=ORIENTED_EDGE('',*,*,#97,.T.);
#42=ORIENTED_EDGE('',*,*,#98,.T.);
#43=ORIENTED_EDGE('',*,*,#99,.T.);
#44=ORIENTED_EDGE('',*,*,#100,.T.);
#45=ORIENTED_EDGE('',*,*,#101,.T.);
#46=ORIENTED_EDGE('',*,*,#102,.F.);
#47=ORIENTED_EDGE('',*,*,#94,.T.);
#48=ORIENTED_EDGE('',*,*,#103,.T.);
#49=ORIENTED_EDGE('',*,*,#104,.T.);
#50=ORIENTED_EDGE('',*,*,#105,.T.);
#51=ORIENTED_EDGE('',*,*,#106,.T.);
#52=ORIENTED_EDGE('',*,*,#107,.F.);
#53=ORIENTED_EDGE('',*,*,#95,.F.);
#54=ORIENTED_EDGE('',*,*,#108,.T.);
#55=ORIENTED_EDGE('',*,*,#92,.T.);
#56=ORIENTED_EDGE('',*,*,#108,.F.);
#57=ORIENTED_EDGE('',*,*,#107,.T.);
#58=ORIENTED_EDGE('',*,*,#109,.T.);
#59=ORIENTED_EDGE('',*,*,#93,.T.);
#60=ORIENTED_EDGE('',*,*,#109,.F.);
#61=ORIENTED_EDGE('',*,*,#102,.T.);
#62=ORIENTED_EDGE('',*,*,#110,.F.);
#63=ORIENTED_EDGE('',*,*,#110,.T.);
#64=ORIENTED_EDGE('',*,*,#106,.F.);
#65=ORIENTED_EDGE('',*,*,#111,.F.);
#66=ORIENTED_EDGE('',*,*,#111,.T.);
#67=ORIENTED_EDGE('',*,*,#105,.F.);
#68=ORIENTED_EDGE('',*,*,#112,.F.);
#69=ORIENTED_EDGE('',*,*,#112,.T.);
#70=ORIENTED_EDGE('',*,*,#104,.F.);
#71=ORIENTED_EDGE('',*,*,#113,.F.);
#72=ORIENTED_EDGE('',*,*,#113,.T.);
#73=ORIENTED_EDGE('',*,*,#103,.F.);
#74=ORIENTED_EDGE('',*,*,#114,.F.);
#75=ORIENTED_EDGE('',*,*,#114,.T.);
#76=ORIENTED_EDGE('',*,*,#101,.F.);
#77=ORIENTED_EDGE('',*,*,#115,.F.);
#78=ORIENTED_EDGE('',*,*,#115,.T.);
#79=ORIENTED_EDGE('',*,*,#100,.F.);
#80=ORIENTED_EDGE('',*,*,#116,.F.);
#81=ORIENTED_EDGE('',*,*,#116,.T.);
#82=ORIENTED_EDGE('',*,*,#99,.F.);
#83=ORIENTED_EDGE('',*,*,#117,.F.);
#84=ORIENTED_EDGE('',*,*,#117,.T.);
#85=ORIENTED_EDGE('',*,*,#98,.F.);
#86=ORIENTED_EDGE('',*,*,#118,.F.);
#87=ORIENTED_EDGE('',*,*,#118,.T.);
#88=ORIENTED_EDGE('',*,*,#97,.F.);
#89=ORIENTED_EDGE('',*,*,#119,.F.);
#90=ORIENTED_EDGE('',*,*,#119,.T.);
#91=ORIENTED_EDGE('',*,*,#96,.F.);
#92=EDGE_CURVE('',#120,#120,#158,.F.);
#93=EDGE_CURVE('',#121,#121,#159,.F.);
#94=EDGE_CURVE('',#122,#122,#160,.T.);
#95=EDGE_CURVE('',#123,#123,#161,.T.);
#96=EDGE_CURVE('',#124,#124,#162,.T.);
#97=EDGE_CURVE('',#125,#125,#163,.T.);
#98=EDGE_CURVE('',#126,#126,#164,.T.);
#99=EDGE_CURVE('',#127,#127,#165,.T.);
#100=EDGE_CURVE('',#128,#128,#166,.T.);
#101=EDGE_CURVE('',#129,#129,#167,.T.);
#102=EDGE_CURVE('',#130,#130,#168,.T.);
#103=EDGE_CURVE('',#131,#131,#169,.T.);
#104=EDGE_CURVE('',#132,#132,#170,.T.);
#105=EDGE_CURVE('',#133,#133,#171,.T.);
#106=EDGE_CURVE('',#134,#134,#172,.T.);
#107=EDGE_CURVE('',#135,#135,#173,.T.);
#108=EDGE_CURVE('',#136,#136,#174,.T.);
#109=EDGE_CURVE('',#137,#137,#175,.T.);
#110=EDGE_CURVE('',#139,#139,#176,.T.);
#111=EDGE_CURVE('',#141,#141,#177,.T.);
#112=EDGE_CURVE('',#143,#143,#178,.T.);
#113=EDGE_CURVE('',#145,#145,#179,.T.);
#114=EDGE_CURVE('',#147,#147,#180,.T.);
#115=EDGE_CURVE('',#149,#149,#181,.T.);
#116=EDGE_CURVE('',#151,#151,#182,.T.);
#117=EDGE_CURVE('',#153,#153,#183,.T.);
#118=EDGE_CURVE('',#155,#155,#184,.T.);
#119=EDGE_CURVE('',#157,#157,#185,.T.);
#120=VERTEX_POINT('',#536);
#121=VERTEX_POINT('',#538);
#122=VERTEX_POINT('',#541);
#123=VERTEX_POINT('',#543);
#124=VERTEX_POINT('',#546);
#125=VERTEX_POINT('',#548);
#126=VERTEX_POINT('',#550);
#127=VERTEX_POINT('',#552);
#128=VERTEX_POINT('',#554);
#129=VERTEX_POINT('',#556);
#130=VERTEX_POINT('',#558);
#131=VERTEX_POINT('',#561);
#132=VERTEX_POINT('',#563);
#133=VERTEX_POINT('',#565);
#134=VERTEX_POINT('',#567);
#135=VERTEX_POINT('',#569);
#136=VERTEX_POINT('',#572);
#137=VERTEX_POINT('',#576);
#138=VERTEX_POINT('',#579);
#139=VERTEX_POINT('',#581);
#140=VERTEX_POINT('',#584);
#141=VERTEX_POINT('',#586);
#142=VERTEX_POINT('',#589);
#143=VERTEX_POINT('',#591);
#144=VERTEX_POINT('',#594);
#145=VERTEX_POINT('',#596);
#146=VERTEX_POINT('',#599);
#147=VERTEX_POINT('',#601);
#148=VERTEX_POINT('',#604);
#149=VERTEX_POINT('',#606);
#150=VERTEX_POINT('',#609);
#151=VERTEX_POINT('',#611);
#152=VERTEX_POINT('',#614);
#153=VERTEX_POINT('',#616);
#154=VERTEX_POINT('',#619);
#155=VERTEX_POINT('',#621);
#156=VERTEX_POINT('',#624);
#157=VERTEX_POINT('',#626);
#158=CIRCLE('',#364,0.0375);
#159=CIRCLE('',#365,0.0375);
#160=CIRCLE('',#367,0.065);
#161=CIRCLE('',#368,0.065);
#162=CIRCLE('',#370,0.0054);
#163=CIRCLE('',#371,0.0054);
#164=CIRCLE('',#372,0.0054);
#165=CIRCLE('',#373,0.0054);
#166=CIRCLE('',#374,0.0054);
#167=CIRCLE('',#375,0.0054);
#168=CIRCLE('',#376,0.0415);
#169=CIRCLE('',#378,0.0044);
#170=CIRCLE('',#379,0.0044);
#171=CIRCLE('',#380,0.0044);
#172=CIRCLE('',#381,0.0044);
#173=CIRCLE('',#382,0.04425);
#174=CIRCLE('',#384,0.04425);
#175=CIRCLE('',#387,0.0415);
#176=CIRCLE('',#390,0.0044);
#177=CIRCLE('',#393,0.0044);
#178=CIRCLE('',#396,0.0044);
#179=CIRCLE('',#399,0.0044);
#180=CIRCLE('',#402,0.0054);
#181=CIRCLE('',#405,0.0054);
#182=CIRCLE('',#408,0.0054);
#183=CIRCLE('',#411,0.0054);
#184=CIRCLE('',#414,0.0054);
#185=CIRCLE('',#417,0.0054);
#186=EDGE_LOOP('',(#36));
#187=EDGE_LOOP('',(#37));
#188=EDGE_LOOP('',(#38));
#189=EDGE_LOOP('',(#39));
#190=EDGE_LOOP('',(#40));
#191=EDGE_LOOP('',(#41));
#192=EDGE_LOOP('',(#42));
#193=EDGE_LOOP('',(#43));
#194=EDGE_LOOP('',(#44));
#195=EDGE_LOOP('',(#45));
#196=EDGE_LOOP('',(#46));
#197=EDGE_LOOP('',(#47));
#198=EDGE_LOOP('',(#48));
#199=EDGE_LOOP('',(#49));
#200=EDGE_LOOP('',(#50));
#201=EDGE_LOOP('',(#51));
#202=EDGE_LOOP('',(#52));
#203=EDGE_LOOP('',(#53));
#204=EDGE_LOOP('',(#54));
#205=EDGE_LOOP('',(#55));
#206=EDGE_LOOP('',(#56));
#207=EDGE_LOOP('',(#57));
#208=EDGE_LOOP('',(#58));
#209=EDGE_LOOP('',(#59));
#210=EDGE_LOOP('',(#60));
#211=EDGE_LOOP('',(#61));
#212=EDGE_LOOP('',(#62));
#213=EDGE_LOOP('',(#63));
#214=EDGE_LOOP('',(#64));
#215=EDGE_LOOP('',(#65));
#216=EDGE_LOOP('',(#66));
#217=EDGE_LOOP('',(#67));
#218=EDGE_LOOP('',(#68));
#219=EDGE_LOOP('',(#69));
#220=EDGE_LOOP('',(#70));
#221=EDGE_LOOP('',(#71));
#222=EDGE_LOOP('',(#72));
#223=EDGE_LOOP('',(#73));
#224=EDGE_LOOP('',(#74));
#225=EDGE_LOOP('',(#75));
#226=EDGE_LOOP('',(#76));
#227=EDGE_LOOP('',(#77));
#228=EDGE_LOOP('',(#78));
#229=EDGE_LOOP('',(#79));
#230=EDGE_LOOP('',(#80));
#231=EDGE_LOOP('',(#81));
#232=EDGE_LOOP('',(#82));
#233=EDGE_LOOP('',(#83));
#234=EDGE_LOOP('',(#84));
#235=EDGE_LOOP('',(#85));
#236=EDGE_LOOP('',(#86));
#237=EDGE_LOOP('',(#87));
#238=EDGE_LOOP('',(#88));
#239=EDGE_LOOP('',(#89));
#240=EDGE_LOOP('',(#90));
#241=EDGE_LOOP('',(#91));
#242=FACE_BOUND('',#186,.T.);
#243=FACE_BOUND('',#187,.T.);
#244=FACE_BOUND('',#188,.T.);
#245=FACE_BOUND('',#189,.T.);
#246=FACE_BOUND('',#190,.T.);
#247=FACE_BOUND('',#191,.T.);
#248=FACE_BOUND('',#192,.T.);
#249=FACE_BOUND('',#193,.T.);
#250=FACE_BOUND('',#194,.T.);
#251=FACE_BOUND('',#195,.T.);
#252=FACE_BOUND('',#196,.T.);
#253=FACE_BOUND('',#197,.T.);
#254=FACE_BOUND('',#198,.T.);
#255=FACE_BOUND('',#199,.T.);
#256=FACE_BOUND('',#200,.T.);
#257=FACE_BOUND('',#201,.T.);
#258=FACE_BOUND('',#202,.T.);
#259=FACE_BOUND('',#203,.T.);
#260=FACE_BOUND('',#204,.T.);
#261=FACE_BOUND('',#205,.T.);
#262=FACE_BOUND('',#206,.T.);
#263=FACE_BOUND('',#207,.T.);
#264=FACE_BOUND('',#208,.T.);
#265=FACE_BOUND('',#209,.T.);
#266=FACE_BOUND('',#210,.T.);
#267=FACE_BOUND('',#211,.T.);
#268=FACE_BOUND('',#12,.T.);
#269=FACE_BOUND('',#212,.T.);
#270=FACE_BOUND('',#213,.T.);
#271=FACE_BOUND('',#214,.T.);
#272=FACE_BOUND('',#13,.T.);
#273=FACE_BOUND('',#215,.T.);
#274=FACE_BOUND('',#216,.T.);
#275=FACE_BOUND('',#217,.T.);
#276=FACE_BOUND('',#14,.T.);
#277=FACE_BOUND('',#218,.T.);
#278=FACE_BOUND('',#219,.T.);
#279=FACE_BOUND('',#220,.T.);
#280=FACE_BOUND('',#15,.T.);
#281=FACE_BOUND('',#221,.T.);
#282=FACE_BOUND('',#222,.T.);
#283=FACE_BOUND('',#223,.T.);
#284=FACE_BOUND('',#16,.T.);
#285=FACE_BOUND('',#224,.T.);
#286=FACE_BOUND('',#225,.T.);
#287=FACE_BOUND('',#226,.T.);
#288=FACE_BOUND('',#17,.T.);
#289=FACE_BOUND('',#227,.T.);
#290=FACE_BOUND('',#228,.T.);
#291=FACE_BOUND('',#229,.T.);
#292=FACE_BOUND('',#18,.T.);
#293=FACE_BOUND('',#230,.T.);
#294=FACE_BOUND('',#231,.T.);
#295=FACE_BOUND('',#232,.T.);
#296=FACE_BOUND('',#19,.T.);
#297=FACE_BOUND('',#233,.T.);
#298=FACE_BOUND('',#234,.T.);
#299=FACE_BOUND('',#235,.T.);
#300=FACE_BOUND('',#20,.T.);
#301=FACE_BOUND('',#236,.T.);
#302=FACE_BOUND('',#237,.T.);
#303=FACE_BOUND('',#238,.T.);
#304=FACE_BOUND('',#21,.T.);
#305=FACE_BOUND('',#239,.T.);
#306=FACE_BOUND('',#240,.T.);
#307=FACE_BOUND('',#241,.T.);
#308=CYLINDRICAL_SURFACE('',#363,0.0375);
#309=CYLINDRICAL_SURFACE('',#366,0.065);
#310=CYLINDRICAL_SURFACE('',#385,0.04425);
#311=CYLINDRICAL_SURFACE('',#388,0.0415);
#312=CYLINDRICAL_SURFACE('',#391,0.0044);
#313=CYLINDRICAL_SURFACE('',#394,0.0044);
#314=CYLINDRICAL_SURFACE('',#397,0.0044);
#315=CYLINDRICAL_SURFACE('',#400,0.0044);
#316=CYLINDRICAL_SURFACE('',#403,0.0054);
#317=CYLINDRICAL_SURFACE('',#406,0.0054);
#318=CYLINDRICAL_SURFACE('',#409,0.0054);
#319=CYLINDRICAL_SURFACE('',#412,0.0054);
#320=CYLINDRICAL_SURFACE('',#415,0.0054);
#321=CYLINDRICAL_SURFACE('',#418,0.0054);
#322=ADVANCED_FACE('',(#242,#243),#308,.F.);
#323=ADVANCED_FACE('',(#244,#245),#309,.T.);
#324=ADVANCED_FACE('',(#246,#247,#248,#249,#250,#251,#252,#253),#32,.T.);
#325=ADVANCED_FACE('',(#254,#255,#256,#257,#258,#259),#33,.F.);
#326=ADVANCED_FACE('',(#260,#261),#34,.T.);
#327=ADVANCED_FACE('',(#262,#263),#310,.F.);
#328=ADVANCED_FACE('',(#264,#265),#35,.T.);
#329=ADVANCED_FACE('',(#266,#267),#311,.F.);
#330=ADVANCED_FACE('',(#268,#269),#22,.F.);
#331=ADVANCED_FACE('',(#270,#271),#312,.F.);
#332=ADVANCED_FACE('',(#272,#273),#23,.F.);
#333=ADVANCED_FACE('',(#274,#275),#313,.F.);
#334=ADVANCED_FACE('',(#276,#277),#24,.F.);
#335=ADVANCED_FACE('',(#278,#279),#314,.F.);
#336=ADVANCED_FACE('',(#280,#281),#25,.F.);
#337=ADVANCED_FACE('',(#282,#283),#315,.F.);
#338=ADVANCED_FACE('',(#284,#285),#26,.F.);
#339=ADVANCED_FACE('',(#286,#287),#316,.F.);
#340=ADVANCED_FACE('',(#288,#289),#27,.F.);
#341=ADVANCED_FACE('',(#290,#291),#317,.F.);
#342=ADVANCED_FACE('',(#292,#293),#28,.F.);
#343=ADVANCED_FACE('',(#294,#295),#318,.F.);
#344=ADVANCED_FACE('',(#296,#297),#29,.F.);
#345=ADVANCED_FACE('',(#298,#299),#319,.F.);
#346=ADVANCED_FACE('',(#300,#301),#30,.F.);
#347=ADVANCED_FACE('',(#302,#303),#320,.F.);
#348=ADVANCED_FACE('',(#304,#305),#31,.F.);
#349=ADVANCED_FACE('',(#306,#307),#321,.F.);
#350=CLOSED_SHELL('',(#322,#323,#324,#325,#326,#327,#328,#329,#330,#331,
#332,#333,#334,#335,#336,#337,#338,#339,#340,#341,#342,#343,#344,#345,#346,
#347,#348,#349));
#351=STYLED_ITEM('',(#352),#359);
#352=PRESENTATION_STYLE_ASSIGNMENT((#353));
#353=SURFACE_STYLE_USAGE(.BOTH.,#354);
#354=SURFACE_SIDE_STYLE('',(#355));
#355=SURFACE_STYLE_FILL_AREA(#356);
#356=FILL_AREA_STYLE('',(#357));
#357=FILL_AREA_STYLE_COLOUR('',#358);
#358=COLOUR_RGB('',0.615686274509804,0.811764705882353,0.929411764705882);
#359=MANIFOLD_SOLID_BREP('Bride Diff\X\E9rentiel/Cardan',#350);
#360=SHAPE_DEFINITION_REPRESENTATION(#634,#361);
#361=SHAPE_REPRESENTATION('Bride Diff\X\E9rentiel/Cardan',(#362),#629);
#362=AXIS2_PLACEMENT_3D('',#533,#419,#420);
#363=AXIS2_PLACEMENT_3D('',#534,#421,#422);
#364=AXIS2_PLACEMENT_3D('',#535,#423,#424);
#365=AXIS2_PLACEMENT_3D('',#537,#425,#426);
#366=AXIS2_PLACEMENT_3D('',#539,#427,#428);
#367=AXIS2_PLACEMENT_3D('',#540,#429,#430);
#368=AXIS2_PLACEMENT_3D('',#542,#431,#432);
#369=AXIS2_PLACEMENT_3D('',#544,#433,#434);
#370=AXIS2_PLACEMENT_3D('',#545,#435,#436);
#371=AXIS2_PLACEMENT_3D('',#547,#437,#438);
#372=AXIS2_PLACEMENT_3D('',#549,#439,#440);
#373=AXIS2_PLACEMENT_3D('',#551,#441,#442);
#374=AXIS2_PLACEMENT_3D('',#553,#443,#444);
#375=AXIS2_PLACEMENT_3D('',#555,#445,#446);
#376=AXIS2_PLACEMENT_3D('',#557,#447,#448);
#377=AXIS2_PLACEMENT_3D('',#559,#449,#450);
#378=AXIS2_PLACEMENT_3D('',#560,#451,#452);
#379=AXIS2_PLACEMENT_3D('',#562,#453,#454);
#380=AXIS2_PLACEMENT_3D('',#564,#455,#456);
#381=AXIS2_PLACEMENT_3D('',#566,#457,#458);
#382=AXIS2_PLACEMENT_3D('',#568,#459,#460);
#383=AXIS2_PLACEMENT_3D('',#570,#461,#462);
#384=AXIS2_PLACEMENT_3D('',#571,#463,#464);
#385=AXIS2_PLACEMENT_3D('',#573,#465,#466);
#386=AXIS2_PLACEMENT_3D('',#574,#467,#468);
#387=AXIS2_PLACEMENT_3D('',#575,#469,#470);
#388=AXIS2_PLACEMENT_3D('',#577,#471,#472);
#389=AXIS2_PLACEMENT_3D('',#578,#473,#474);
#390=AXIS2_PLACEMENT_3D('',#580,#475,#476);
#391=AXIS2_PLACEMENT_3D('',#582,#477,#478);
#392=AXIS2_PLACEMENT_3D('',#583,#479,#480);
#393=AXIS2_PLACEMENT_3D('',#585,#481,#482);
#394=AXIS2_PLACEMENT_3D('',#587,#483,#484);
#395=AXIS2_PLACEMENT_3D('',#588,#485,#486);
#396=AXIS2_PLACEMENT_3D('',#590,#487,#488);
#397=AXIS2_PLACEMENT_3D('',#592,#489,#490);
#398=AXIS2_PLACEMENT_3D('',#593,#491,#492);
#399=AXIS2_PLACEMENT_3D('',#595,#493,#494);
#400=AXIS2_PLACEMENT_3D('',#597,#495,#496);
#401=AXIS2_PLACEMENT_3D('',#598,#497,#498);
#402=AXIS2_PLACEMENT_3D('',#600,#499,#500);
#403=AXIS2_PLACEMENT_3D('',#602,#501,#502);
#404=AXIS2_PLACEMENT_3D('',#603,#503,#504);
#405=AXIS2_PLACEMENT_3D('',#605,#505,#506);
#406=AXIS2_PLACEMENT_3D('',#607,#507,#508);
#407=AXIS2_PLACEMENT_3D('',#608,#509,#510);
#408=AXIS2_PLACEMENT_3D('',#610,#511,#512);
#409=AXIS2_PLACEMENT_3D('',#612,#513,#514);
#410=AXIS2_PLACEMENT_3D('',#613,#515,#516);
#411=AXIS2_PLACEMENT_3D('',#615,#517,#518);
#412=AXIS2_PLACEMENT_3D('',#617,#519,#520);
#413=AXIS2_PLACEMENT_3D('',#618,#521,#522);
#414=AXIS2_PLACEMENT_3D('',#620,#523,#524);
#415=AXIS2_PLACEMENT_3D('',#622,#525,#526);
#416=AXIS2_PLACEMENT_3D('',#623,#527,#528);
#417=AXIS2_PLACEMENT_3D('',#625,#529,#530);
#418=AXIS2_PLACEMENT_3D('',#627,#531,#532);
#419=DIRECTION('',(0.,0.,1.));
#420=DIRECTION('',(1.,0.,0.));
#421=DIRECTION('',(-1.,0.,0.));
#422=DIRECTION('',(0.,0.,1.));
#423=DIRECTION('',(-1.,0.,0.));
#424=DIRECTION('',(0.,0.,1.));
#425=DIRECTION('',(1.,0.,0.));
#426=DIRECTION('',(0.,0.,-1.));
#427=DIRECTION('',(-1.,0.,0.));
#428=DIRECTION('',(0.,0.,1.));
#429=DIRECTION('',(1.,0.,0.));
#430=DIRECTION('',(0.,0.,-1.));
#431=DIRECTION('',(1.,0.,0.));
#432=DIRECTION('',(0.,0.,-1.));
#433=DIRECTION('',(1.,0.,0.));
#434=DIRECTION('',(0.,1.,0.));
#435=DIRECTION('',(-1.,0.,0.));
#436=DIRECTION('',(0.,0.,1.));
#437=DIRECTION('',(-1.,0.,0.));
#438=DIRECTION('',(0.,0.,1.));
#439=DIRECTION('',(-1.,0.,0.));
#440=DIRECTION('',(0.,0.,1.));
#441=DIRECTION('',(-1.,0.,0.));
#442=DIRECTION('',(0.,0.,1.));
#443=DIRECTION('',(-1.,0.,0.));
#444=DIRECTION('',(0.,0.,1.));
#445=DIRECTION('',(-1.,0.,0.));
#446=DIRECTION('',(0.,0.,1.));
#447=DIRECTION('',(1.,0.,0.));
#448=DIRECTION('',(0.,0.,-1.));
#449=DIRECTION('',(1.,0.,0.));
#450=DIRECTION('',(0.,1.,0.));
#451=DIRECTION('',(1.,0.,0.));
#452=DIRECTION('',(0.,0.,-1.));
#453=DIRECTION('',(1.,0.,0.));
#454=DIRECTION('',(0.,0.,-1.));
#455=DIRECTION('',(1.,0.,0.));
#456=DIRECTION('',(0.,0.,-1.));
#457=DIRECTION('',(1.,0.,0.));
#458=DIRECTION('',(0.,0.,-1.));
#459=DIRECTION('',(-1.,0.,0.));
#460=DIRECTION('',(0.,0.,1.));
#461=DIRECTION('',(-1.,0.,0.));
#462=DIRECTION('',(0.,-1.,0.));
#463=DIRECTION('',(-1.,0.,0.));
#464=DIRECTION('',(0.,0.,1.));
#465=DIRECTION('',(-1.,0.,0.));
#466=DIRECTION('',(0.,0.,1.));
#467=DIRECTION('',(1.,0.,0.));
#468=DIRECTION('',(0.,1.,0.));
#469=DIRECTION('',(1.,0.,0.));
#470=DIRECTION('',(0.,0.,-1.));
#471=DIRECTION('',(1.,0.,0.));
#472=DIRECTION('',(0.,0.,-1.));
#473=DIRECTION('',(-1.,0.,0.));
#474=DIRECTION('',(0.,0.,1.));
#475=DIRECTION('',(1.,0.,0.));
#476=DIRECTION('',(0.,0.,-1.));
#477=DIRECTION('',(1.,0.,0.));
#478=DIRECTION('',(0.,0.,-1.));
#479=DIRECTION('',(-1.,0.,0.));
#480=DIRECTION('',(0.,0.,1.));
#481=DIRECTION('',(1.,0.,0.));
#482=DIRECTION('',(0.,0.,-1.));
#483=DIRECTION('',(1.,0.,0.));
#484=DIRECTION('',(0.,0.,-1.));
#485=DIRECTION('',(-1.,0.,0.));
#486=DIRECTION('',(0.,0.,1.));
#487=DIRECTION('',(1.,0.,0.));
#488=DIRECTION('',(0.,0.,-1.));
#489=DIRECTION('',(1.,0.,0.));
#490=DIRECTION('',(0.,0.,-1.));
#491=DIRECTION('',(-1.,0.,0.));
#492=DIRECTION('',(0.,0.,1.));
#493=DIRECTION('',(1.,0.,0.));
#494=DIRECTION('',(0.,0.,-1.));
#495=DIRECTION('',(1.,0.,0.));
#496=DIRECTION('',(0.,0.,-1.));
#497=DIRECTION('',(1.,0.,0.));
#498=DIRECTION('',(0.,0.,-1.));
#499=DIRECTION('',(-1.,0.,0.));
#500=DIRECTION('',(0.,0.,1.));
#501=DIRECTION('',(-1.,0.,0.));
#502=DIRECTION('',(0.,0.,1.));
#503=DIRECTION('',(1.,0.,0.));
#504=DIRECTION('',(0.,0.,-1.));
#505=DIRECTION('',(-1.,0.,0.));
#506=DIRECTION('',(0.,0.,1.));
#507=DIRECTION('',(-1.,0.,0.));
#508=DIRECTION('',(0.,0.,1.));
#509=DIRECTION('',(1.,0.,0.));
#510=DIRECTION('',(0.,0.,-1.));
#511=DIRECTION('',(-1.,0.,0.));
#512=DIRECTION('',(0.,0.,1.));
#513=DIRECTION('',(-1.,0.,0.));
#514=DIRECTION('',(0.,0.,1.));
#515=DIRECTION('',(1.,0.,0.));
#516=DIRECTION('',(0.,0.,-1.));
#517=DIRECTION('',(-1.,0.,0.));
#518=DIRECTION('',(0.,0.,1.));
#519=DIRECTION('',(-1.,0.,0.));
#520=DIRECTION('',(0.,0.,1.));
#521=DIRECTION('',(1.,0.,0.));
#522=DIRECTION('',(0.,0.,-1.));
#523=DIRECTION('',(-1.,0.,0.));
#524=DIRECTION('',(0.,0.,1.));
#525=DIRECTION('',(-1.,0.,0.));
#526=DIRECTION('',(0.,0.,1.));
#527=DIRECTION('',(1.,0.,0.));
#528=DIRECTION('',(0.,0.,-1.));
#529=DIRECTION('',(-1.,0.,0.));
#530=DIRECTION('',(0.,0.,1.));
#531=DIRECTION('',(-1.,0.,0.));
#532=DIRECTION('',(0.,0.,1.));
#533=CARTESIAN_POINT('',(0.,0.,0.));
#534=CARTESIAN_POINT('',(0.040002,0.,2.29621274840128E-18));
#535=CARTESIAN_POINT('',(0.002,0.,2.29621274840128E-18));
#536=CARTESIAN_POINT('',(0.002,0.,0.0375));
#537=CARTESIAN_POINT('',(0.037,0.,2.29621274840128E-18));
#538=CARTESIAN_POINT('',(0.037,0.,-0.0375));
#539=CARTESIAN_POINT('',(0.04,0.,3.9801020972289E-18));
#540=CARTESIAN_POINT('',(0.04,0.,3.9801020972289E-18));
#541=CARTESIAN_POINT('',(0.04,0.,-0.065));
#542=CARTESIAN_POINT('',(0.,0.,3.9801020972289E-18));
#543=CARTESIAN_POINT('',(0.,0.,-0.065));
#544=CARTESIAN_POINT('',(0.04,0.,0.));
#545=CARTESIAN_POINT('',(0.04,-0.012940952255126,0.0482962913144534));
#546=CARTESIAN_POINT('',(0.04,-0.012940952255126,0.0536962913144534));
#547=CARTESIAN_POINT('',(0.04,-0.0482962913144534,0.012940952255126));
#548=CARTESIAN_POINT('',(0.04,-0.0482962913144534,0.018340952255126));
#549=CARTESIAN_POINT('',(0.04,-0.0353553390593274,-0.0353553390593274));
#550=CARTESIAN_POINT('',(0.04,-0.0353553390593274,-0.0299553390593274));
#551=CARTESIAN_POINT('',(0.04,0.012940952255126,-0.0482962913144534));
#552=CARTESIAN_POINT('',(0.04,0.012940952255126,-0.0428962913144534));
#553=CARTESIAN_POINT('',(0.04,0.0482962913144534,-0.012940952255126));
#554=CARTESIAN_POINT('',(0.04,0.0482962913144534,-0.007540952255126));
#555=CARTESIAN_POINT('',(0.04,0.0353553390593274,0.0353553390593273));
#556=CARTESIAN_POINT('',(0.04,0.0353553390593274,0.0407553390593274));
#557=CARTESIAN_POINT('',(0.04,0.,4.68787590908906E-18));
#558=CARTESIAN_POINT('',(0.04,0.,-0.0415));
#559=CARTESIAN_POINT('',(0.,0.,0.));
#560=CARTESIAN_POINT('',(0.,0.,-0.055));
#561=CARTESIAN_POINT('',(0.,0.,-0.0594));
#562=CARTESIAN_POINT('',(0.,-0.055,-6.93889390390723E-18));
#563=CARTESIAN_POINT('',(0.,-0.055,-0.00440000000000001));
#564=CARTESIAN_POINT('',(0.,0.,0.055));
#565=CARTESIAN_POINT('',(0.,0.,0.0506));
#566=CARTESIAN_POINT('',(0.,0.055,-6.93889390390723E-18));
#567=CARTESIAN_POINT('',(0.,0.055,-0.00440000000000001));
#568=CARTESIAN_POINT('',(0.,0.,2.70953104311352E-18));
#569=CARTESIAN_POINT('',(0.,0.,0.04425));
#570=CARTESIAN_POINT('',(0.002,0.,0.));
#571=CARTESIAN_POINT('',(0.002,0.,2.70953104311352E-18));
#572=CARTESIAN_POINT('',(0.002,0.,0.04425));
#573=CARTESIAN_POINT('',(0.002,0.,2.70953104311352E-18));
#574=CARTESIAN_POINT('',(0.037,0.,0.));
#575=CARTESIAN_POINT('',(0.037,0.,4.68787590908906E-18));
#576=CARTESIAN_POINT('',(0.037,0.,-0.0415));
#577=CARTESIAN_POINT('',(0.037,0.,4.68787590908906E-18));
#578=CARTESIAN_POINT('',(0.03,0.055,-6.93889390390723E-18));
#579=CARTESIAN_POINT('',(0.0326437867237213,0.055,-6.93889390390723E-18));
#580=CARTESIAN_POINT('',(0.03,0.055,-6.93889390390723E-18));
#581=CARTESIAN_POINT('',(0.03,0.055,-0.00440000000000001));
#582=CARTESIAN_POINT('',(0.,0.055,-6.93889390390723E-18));
#583=CARTESIAN_POINT('',(0.03,0.,0.055));
#584=CARTESIAN_POINT('',(0.0326437867237213,0.,0.055));
#585=CARTESIAN_POINT('',(0.03,0.,0.055));
#586=CARTESIAN_POINT('',(0.03,0.,0.0506));
#587=CARTESIAN_POINT('',(0.,0.,0.055));
#588=CARTESIAN_POINT('',(0.03,-0.055,-6.93889390390723E-18));
#589=CARTESIAN_POINT('',(0.0326437867237213,-0.055,-6.93889390390723E-18));
#590=CARTESIAN_POINT('',(0.03,-0.055,-6.93889390390723E-18));
#591=CARTESIAN_POINT('',(0.03,-0.055,-0.00440000000000001));
#592=CARTESIAN_POINT('',(0.,-0.055,-6.93889390390723E-18));
#593=CARTESIAN_POINT('',(0.03,0.,-0.055));
#594=CARTESIAN_POINT('',(0.0326437867237213,0.,-0.055));
#595=CARTESIAN_POINT('',(0.03,0.,-0.055));
#596=CARTESIAN_POINT('',(0.03,0.,-0.0594));
#597=CARTESIAN_POINT('',(0.,0.,-0.055));
#598=CARTESIAN_POINT('',(0.01,0.0353553390593274,0.0353553390593273));
#599=CARTESIAN_POINT('',(0.00675535265725118,0.0353553390593274,0.0353553390593273));
#600=CARTESIAN_POINT('',(0.01,0.0353553390593274,0.0353553390593273));
#601=CARTESIAN_POINT('',(0.01,0.0353553390593274,0.0407553390593274));
#602=CARTESIAN_POINT('',(0.04,0.0353553390593274,0.0353553390593273));
#603=CARTESIAN_POINT('',(0.01,0.0482962913144534,-0.012940952255126));
#604=CARTESIAN_POINT('',(0.00675535265725118,0.0482962913144534,-0.012940952255126));
#605=CARTESIAN_POINT('',(0.01,0.0482962913144534,-0.012940952255126));
#606=CARTESIAN_POINT('',(0.01,0.0482962913144534,-0.007540952255126));
#607=CARTESIAN_POINT('',(0.04,0.0482962913144534,-0.012940952255126));
#608=CARTESIAN_POINT('',(0.01,0.012940952255126,-0.0482962913144534));
#609=CARTESIAN_POINT('',(0.00675535265725118,0.012940952255126,-0.0482962913144534));
#610=CARTESIAN_POINT('',(0.01,0.012940952255126,-0.0482962913144534));
#611=CARTESIAN_POINT('',(0.01,0.012940952255126,-0.0428962913144534));
#612=CARTESIAN_POINT('',(0.04,0.012940952255126,-0.0482962913144534));
#613=CARTESIAN_POINT('',(0.01,-0.0353553390593274,-0.0353553390593274));
#614=CARTESIAN_POINT('',(0.00675535265725118,-0.0353553390593274,-0.0353553390593274));
#615=CARTESIAN_POINT('',(0.01,-0.0353553390593274,-0.0353553390593274));
#616=CARTESIAN_POINT('',(0.01,-0.0353553390593274,-0.0299553390593274));
#617=CARTESIAN_POINT('',(0.04,-0.0353553390593274,-0.0353553390593274));
#618=CARTESIAN_POINT('',(0.01,-0.0482962913144534,0.012940952255126));
#619=CARTESIAN_POINT('',(0.00675535265725118,-0.0482962913144534,0.012940952255126));
#620=CARTESIAN_POINT('',(0.01,-0.0482962913144534,0.012940952255126));
#621=CARTESIAN_POINT('',(0.01,-0.0482962913144534,0.018340952255126));
#622=CARTESIAN_POINT('',(0.04,-0.0482962913144534,0.012940952255126));
#623=CARTESIAN_POINT('',(0.01,-0.012940952255126,0.0482962913144534));
#624=CARTESIAN_POINT('',(0.00675535265725118,-0.012940952255126,0.0482962913144534));
#625=CARTESIAN_POINT('',(0.01,-0.012940952255126,0.0482962913144534));
#626=CARTESIAN_POINT('',(0.01,-0.012940952255126,0.0536962913144534));
#627=CARTESIAN_POINT('',(0.04,-0.012940952255126,0.0482962913144534));
#628=MECHANICAL_DESIGN_GEOMETRIC_PRESENTATION_REPRESENTATION('',(#351),
#629);
#629=(
GEOMETRIC_REPRESENTATION_CONTEXT(3)
GLOBAL_UNCERTAINTY_ASSIGNED_CONTEXT((#630))
GLOBAL_UNIT_ASSIGNED_CONTEXT((#633,#632,#631))
REPRESENTATION_CONTEXT('Bride Diff\X\E9rentiel/Cardan',
'TOP_LEVEL_ASSEMBLY_PART')
);
#630=UNCERTAINTY_MEASURE_WITH_UNIT(LENGTH_MEASURE(5.E-6),#633,
'DISTANCE_ACCURACY_VALUE','Maximum Tolerance applied to model');
#631=(
NAMED_UNIT(*)
SI_UNIT($,.STERADIAN.)
SOLID_ANGLE_UNIT()
);
#632=(
NAMED_UNIT(*)
PLANE_ANGLE_UNIT()
SI_UNIT($,.RADIAN.)
);
#633=(
LENGTH_UNIT()
NAMED_UNIT(*)
SI_UNIT($,.METRE.)
);
#634=PRODUCT_DEFINITION_SHAPE('','',#635);
#635=PRODUCT_DEFINITION('','',#637,#636);
#636=PRODUCT_DEFINITION_CONTEXT('',#643,'design');
#637=PRODUCT_DEFINITION_FORMATION_WITH_SPECIFIED_SOURCE('','',#639,
 .NOT_KNOWN.);
#638=PRODUCT_RELATED_PRODUCT_CATEGORY('','',(#639));
#639=PRODUCT('Bride Diff\X\E9rentiel/Cardan',
'Bride Diff\X\E9rentiel/Cardan','Bride Diff\X\E9rentiel/Cardan',(#641));
#640=PRODUCT_CATEGORY('','');
#641=PRODUCT_CONTEXT('',#643,'mechanical');
#642=APPLICATION_PROTOCOL_DEFINITION('international standard',
'ap242_managed_model_based_3d_engineering',2011,#643);
#643=APPLICATION_CONTEXT('managed model based 3d engineering');
ENDSEC;
END-ISO-10303-21;
